Leave No Trace
Anathema
AnathemaLeave No Trace Прислать видеоурок
Anathema Leave No Trace
Добавлено: — , Просмотров: 242 (+0)

 
Добавить в избранное

Leave No Trace

List of chords used in the song
E |-2-|-0-|-3-|-2-|-0-|-4-|
B |-3-|-2-|-3-|-2-|-0-|-5-|
G |-4-|-2-|-0-|-2-|-0-|-6-|
D |-4-|-2-|-0-|-4-|-2-|-6-|
A |-2-|-0-|-2-|-4-|-2-|-4-|
E |---|---|-3-|-2-|-0-|---|
    Bm  A   G  F#m  Em C#m 
Electric guitar with distortion playing a noisy F#m  chord
E |----------------|
B |-----------2----|
G |-------------0--|
D |-4--4-4-4------4|
A |-4--4-4-4-------|
E |-2--2-2-2-------|
Acoustic guitar (multiple strokes) & clean guitar (one stroke per chord)
 Bm  F#m 
Acoustic guitar (multiple strokes) & clean guitar (chord arpegio)
Example of arpegio (G  chord)
E |-------3-----|
B |---------3---|
G |-----------4-|
D |-----5-------|
A |---5---------|
E |-3-----------|

Chorus:
G   Bm   G  D    A 
G   Bm   G  D  F#m 
--------
Bm  F#m 

Chorus:
G   Bm   G  D    A 
G   Bm   G  D  F#m 
--------
The song ends with Bm C#m D Em G A  chords played by acoustic guitar (multiple
strokes) and clean guitar with flanger (chord arpegio) while Vinnie and Danny
sing "No future...". There is other acoustic guitar playing this:
E |-----------------------------------------------------------------|
B |-----------------------------------------------------------------|
G |-----------------------------------------------------------------|
D |-----------------------------------------------------------------|
A |-5-5-5-5-5-5-7-7-7-7-7-7-9--9--9--9--9--9--9--10-10-10-10-10-10--|
E |-7-7-7-7-7-7-9-9-9-9-9-9-10-10-10-10-10-10-10-12-12-12-12-12-12--|

E |-------------------------|
B |-------------------------|
G |-------------------------|
D |-------------------------|
A |-2-2-2-2-2-2-2-2-2-4-4-4-|
E |-3-3-3-3-3-3-3-3-3-5-5-5-|

The last chord is Bm  with this riff
E |------------------|
B |------------------|
G |----------------0-|
D |-----11-12-11-----|
A |---9--------------|
E |-7------------7---|

Ещё песни с аккордами исполнителя/группы «Anathema»