Lost Control
Anathema
AnathemaLost Control Прислать видеоурок
Anathema Lost Control
Добавлено: — , Просмотров: 241 (+0)

  Добавить в избранное

Lost Control

G|----------------------------------------------------|
D|----------------------------------------------------|
A|--0------0------0-3-0----3-2-0--------------3-2-0---| } x2 pause x3
E|-------0------0----------------(3)---1-1----------0-|

G|----------------------------------------------------|
D|----------------------------------------------------|
A|--0------0------0-3-0----3-2-0------------------0---| } pause
E|-------0------0----------------(3)---1-1----3-------|

G|------------------------------------------------|
D|------------------------------------------------|
A|--0------0-3-0------0-3-5------5-7-8----8-7-5-3-| } x8
E|-------0----------0----------0------------------|

G|------------------------------------------------|
D|------------------------------------------------|
A|--0------0-3-0------0-3/8----8-7-5------3-2-0---| } repeat till fade
E|-------0----------0----------------3----------3-|

Ещё песни с аккордами исполнителя/группы «Anathema»