One Last Goodbye
Anathema
Anathema One Last Goodbye
Добавлено: — , Просмотров: 468 (+2)

  Добавить в избранное

One Last Goodbye

G|----------------------------------------------------|
D|----------------------------------------------------|
A|-------------------------5-2--(2)---5-2--(2)--------| } x2
E|---2-3--(3)---2-3--(3)------------------------------|

G|----------------------------------------------------|
D|----------------------------------------------------|
A|-------------------------5-2-(2)---0-(0)------------| } x2
E|---2-3--(3)---2-0--(0)------------------------------|

G|-------------------------------------|
D|-------------------------------------|
A|--------------------2--(2)---0--(0)--|
E|--3--(3)---3--(3)--------------------|

G|-------------------------------------|
D|-------------------------------------|
A|--------------------5--(5)---0--(0)--|
E|--0--(0)---0--(0)--------------------|

G|------------------------------------------------|
D|------------------------------------------------|
A|---------------------2--(2)---0--(0)------------|
E|---0--(0)---0--(0)------------------------------|

G|------------------------------------------------|
D|------------------------------------------------|
A|---------------------------5--(5)---9--(9)------|
E|---0--(0)---0-3-2-0--(0)------------------------|

G|----------------------------------------------------|
D|----------------------------------------------------|
A|-------------------------5-2--(2)---5-2--(2)--------| } x2
E|---2-3--(3)---2-3--(3)------------------------------|

G|----------------------------------------------------|
D|----------------------------------------------------|
A|-------------------------5-2-(2)---0-(0)------------| } x2
E|---2-3--(3)---2-0--(0)------------------------------|

G|-------------------------------------|
D|-------------------------------------|
A|--------------------2--(2)---0--(0)--|
E|--3--(3)---3--(3)--------------------|

G|-------------------------------------|
D|-------------------------------------|
A|--------------------5--(5)---0--(0)--|
E|--0--(0)---0--(0)--------------------|

G|------------------------------------------------|
D|------------------------------------------------|
A|---------------------2--(2)---0--(0)------------|
E|---0--(0)---0--(0)------------------------------|

G|------------------------------------------------|
D|------------------------------------------------|
A|---------------------------5--(5)---0--(0)------|
E|---0--(0)---0-3-2-0--(0)------------------------|

G|------------------------------------------------|
D|------------------------------------------------|
A|---------------------2--(2)---0--(0)------------|
E|---0--(0)---0--(0)------------------------------|

G|------------------------------------------------|
D|------------------------------------------------|
A|---------------------------5--(5)---0--(0)------|
E|---0--(0)---0-3-2-0--(0)------------------------|

G|------------------------------------------------|
D|------------------------------------------------|
A|---------------------2--(2)---0--(0)------------|
E|---0--(0)---0--(0)------------------------------|

G|------------------------------------------------|
D|------------------------------------------------|
A|---------------------------5--(5)---9--(9)------|
E|---0--(0)---0-3-2-0--(0)------------------------|

G|------------------------------------------|
D|------------------------------------------|
A|---------------5-2---5-2---5-2---2--------|
E|---2-3---3-5-----------------------3------|

Ещё песни с аккордами исполнителя/группы «Anathema»