Parisienne Moonlight
Anathema
AnathemaParisienne Moonlight Прислать видеоурок
Anathema Parisienne Moonlight
Добавлено: — , Просмотров: 207 (+0)

  Добавить в избранное

Parisienne Moonlight

tune down E to D
the piano plays this in the first half of the song:
-------0-----------0-----------0-----------0---------
-----------------------------------------------------
-----2---2-------2---2-------2---2-------2---2-------
---3-------3---3-------3---3-------3---3-------3-----
-----------------------------------------------------
-0-----------0-----------0-----------0-----------0---
                                         slow
-------0-----------------------1-----------0---------
-------------------3---------------------------------
-----2---2-------2---2-------2---2-------2---2-------
---0-------0---0-------0---3-------3---3-------3-----
-----------------------------------------------------
-0-----------0-----------0-----------0-----------0---

-------0-----------0-----------3-----------1---------
-----------------------------------------------------
-----2---2-------2---2-------2---2-------2---2-------
---3-------3---3-------3---3-------3---3-------3-----
-----------------------------------------------------
-0-----------0-----------0-----------0-----------0---
                                         slow
-------0-----------------------1-----------0---------
-------------------3---------------------------------
-----2---2-------2---2-------2---2-------2---2-------
---3-------3---3-------3---3-------3---3-------3-----
-----------------------------------------------------
-0-----------0-----------0-----------0---------------

Ещё песни с аккордами исполнителя/группы «Anathema»