Re-connect
Anathema
AnathemaRe-connect Прислать видеоурок
Anathema Re-connect
Добавлено: — , Просмотров: 225 (+0)

  Добавить в избранное

Re-connect

Riff A (dist)
    Fragments...
    Some things...
E|----------------------|
B|----------------------|
G|4--------4-------4----|
D|4--------4-------4----|
A|2--------2-------2----|
E|0--------0-------0----|

Riff B (dist)
  With time...
E|----------------------|
B|----------------------|
G|74--54--42

Ещё песни с аккордами исполнителя/группы «Anathema»