Release
Anathema
AnathemaRelease Прислать видеоурок
Anathema Release
Добавлено: — , Просмотров: 295 (+0)

 
Добавить в избранное

A fine day to exit (2001)
Release

Notation:
h Hammer on
p Pull off
/ Slide up
\ Slide down
(x) Bending

List of chords used in the song
E|---|---|---|
B|---|---|---|
G|---|-7-|---|
D|-3-|-7-|-7-|
A|-3-|-5-|-7-|
E|-1-|---|-5-|
   F   D   A 

Acoustic guitar
E|------------|------------|------------|------------|------------|
B|------------|------------|------------|------------|------------|
G|------2-----|------2-----|------2-----|------2-----|------2-----|
D|----------2-|----------2-|----------2-|----------0-|----------0-|
A|--0-0---0---|--0-0---0---|--0-0---0---|--0-0---0---|--0-0---0---|
E|------------|------------|------------|------------|------------|

E|------------|------------|------------|
B|------------|------------|------0-----|
G|------2-----|------2-----|------------|
D|----------3-|----------3-|----------3-|
A|--0-0---0---|--0-0---0---|--0-0---0---|
E|------------|------------|------------|
Electric guitar with distortion
E|----------------------------------------------------------------|
B|-1p3--3-1-0------1-1-0--------0----------------0----------------|
G|-2----2-2---2-2--2-2-2-2-2-2--2p4--4-4-2--2-2--2p4--4-4-2--2-2--|
D|-0----0-0---0-0--3-3-3---3-3--2----2-2-2--2-2--2----2-2-2--2-2--|
A|------------------------------0----0-0-0--0-0--0----0-0-0--0-0--|
E|----------------------------------------------------------------|
    F*               D*            A* 
* A second electric guitar with distortion plays the chords
F*        D*       A* 
Solo with electric guitar
E|----------------------------------------|
B|----------------------------------------|
G|--1412-12-12-1210-10-9-10-9-7-5-4-2-2-|
D|----------------------------------------|
A|----------------------------------------|
E|----------------------------------------|

E|-----------------------------------------------|
B|-----------------------------------------------|
G|--1412-12-12-1210-10-9-12-10-9-7-7-7/9-7-7/9-|
D|-----------------------------------------------|
A|-----------------------------------------------|
E|-----------------------------------------------|

E|----------------------------------------|
B|----------------------------------------|
G|--1412-12-12-1210-10-9-12-10-9-7-5-4-4|
D|----------------------------------------|
A|----------------------------------------|
E|----------------------------------------|

E|-------------------------------------------------------------------------|
B|-------------------------------------------------------------------------|
G|4/5-2-4/5-2-4/5-2-4/5-2--9--14--14-14---14--14-14---14--14-14---14--14-14|
D|-------------------------------------------------------------------------|
A|-------------------------------------------------------------------------|
E|-------------------------------------------------------------------------|

E|---------------------------------------------------------------------|
B|---------------------------------------------------------------------|
G|-14-12-10-9-12-11-12-9-12-14---14--14-14---14--14-14---14--14-14-...
D|---------------------------------------------------------------------|
A|---------------------------------------------------------------------|
E|---------------------------------------------------------------------|
Electric guitar solo without distortion played over the main riff. (This solo
is adapted to be played with one guitar. In the album is played by two guitar
and bass).
E|----------------------------------------------------------------------|
B|----------------------------------------------------13p15-------------|
G|--14--(15)14--12--10--9---(16)14------5p7----5p7----------14----------|
D|--------------14--12--10---------14--------7-----7-------------3-2p3-2|
A|----------------------------------------------------------------------|
E|----------------------------------------------------------------------|

E|---------------------------------------------------------------------|
B|--5/65-------------------13p15--------------------------------------|
G|----------5p7------12p14--------14----2p4-2------14p16-14------------|
D|--2/32--------7--------------------2--------14----------------------|
A|---------------------------------------------------------------------|
E|---------------------------------------------------------------------|

E|---------------------------------------------------------------------|
B|---------------------------------------------------------------------|
G|---7//975-4-5-2-----7//975-4-5-4/54/2---------------------------|
D|---9/1097-5-7-3-----9/1097-5-7-5/752---------------------------|
A|---------------------------------------------------------------------|
E|---------------------------------------------------------------------|

Ещё песни с аккордами исполнителя/группы «Anathema»