Restless Oblivion
Anathema
AnathemaRestless Oblivion Прислать видеоурок
Anathema Restless Oblivion
Добавлено: — , Просмотров: 247 (+0)

  Добавить в избранное

Restless Oblivion

Intro
clean         1.              2.             3.
|---------------|--------------|---------------------------|
|-12------------|-12-----------|-12---10--------8---7------|
|----11---------|----9---------|--9------9------9-----9----|
|-------------9-|------------9-|-10--------10--10-------10-|
|----------10---|---------10---|--0-0-----------0-0--------|
|---------------|--------------|---------------------------|
That's all concerning the intro! When and how often you have to play these parts
isn't so hard to hear from the CD but I'm not gonna write all this stuff down!
Electric
|-------------------------------------------------|
|-------------------------------------------------|
|-------------------------------------------------|
|-2-------7---2-------9---2-------7-2-7-9-9-7-9-9-|
|-2-------5---2-------7---2-------5-2-5-7-7-5-7-7-|
|-0---0-0-3-0-0---0-0-5-0-0---0-0-3-0-3-5-5-3-5-5-|
      . .         . .         . .
|--------------------------------------------------|
|--------------------------------------------------|
|---------------------7-9-9------------------------|
|-2-------7---2-------7-9-9-------7---7-9-9-10-9-9-|
|-2-------5---2-------5-7-7-------5---5-7-7-8--7-7-|
|-0---0-0-3-0-0---0-0---------0-0-3-0-3-5-5-6--5-5-|
      . .         . .         . .
Riff1
|--------------------------------------------------------------------------|
|-8p7-8p7-8p7-8p7-8p7-8p7-8p7-8p7-8p7-8p7----------------------------------|
|-----------------------------------------9-11p9-7-------------------------|
|--------------------------------------------------9p7-9p7-9p7-9p7-9p7-9p7-|Guit1
|--------------------------------------------------------------------------|
|--------------------------------------------------------------------------|
|                                       |
|                                       |
|                                       |
|                                       |
|                                       |
|-15p14-15p14-15p14-15p14-15p14-15p14-15p14-15p14-15p14-15p14p0-14p12p0---|
|--------------------------------------------------------------------------|
|--------------------------------------------------------------------------|
|--------------------------------------------------------------------------|Guit2 (continued
|--------------------------------------------------------------------------|on next line)
|--------------------------------------------------------------------------|

|-7p5-7p5-7p5-7p5-7p5-7p5-|
|-------------------------|
|-------------------------|
|-------------------------|
|-------------------------|
|-------------------------|
Chorus (transcribed for both guitars)
|------------------------------------------------------------------|
|-------------------12-12-12-10-10-10-8-8-8-7-7-7------------------|
|-7/9---------------------------------------------4-4-4-4--4-4-4-4-|
|-7/9---2--2-2-2-2---9--9--9--7--7--7-5-5-5-4-4-4-4-4-4-4--4-4-4-4-|
|-5/7---2--2-2-2-2--------------------------------2-2-2-2--2-2-2-2-|
|-----0-0--0-0-0-0-------------------------------------------------|
      .
                       1.
|------------------------|
|------------------------|
|-4-------2--2-2-2-2-2-2-|
|-4-------3--3-3-3-3-3-3-|
|-2-------3--3-3-3-3-3-3-|
|---1-1-1-1--1-1-1-1-1-1-|
    . . .
|------------------------------------------------------------------------|
|--------------------12-12-12-10-10-10-8-8-8-7-7-7-5--5-5-5-5-5--5-5-5-5-|
|-7/9--------------------------------------------------------------------|
|-7/9---2--2-2-2-2----9--9--9--7--7--7-5-5-5-4-4-4-2--2-2-2-2-2--2-2-2-2-|
|-5/7---2--2-2-2-2---------------------------------3--3-3-3-3-3--3-3-3-3-|
|-----0-0--0-0-0-0-------------------------------------------------------|
               2.
|----------------|
|-12-10-8-10-8-7-|
|----------------|
|--9--7-5--7-5-4-|
|--0-------3-----|
|----------------|
Riff 2
Clean
|-----2-----------------------3-2----2h3p2p0-|
|-----0----------0------------0------0-------|
|-----0--------0---0--------0-0------0-------|
|---4--------4-------4----1----------1-------|
|-2--------2---------------------------------|
|--------------------------------------------|
I only wrote down the chords in a simple way! I don't wanna write 'em exactly
down for this would take too much time!
The heavy riff afterwards is also a combination between these chords! Here I'll
only write down the rhythm guitar!
afterwards...
electric
|----------------------------------------|
|----------------------------------------|
|-----------------------8--8-8-8-8-8-----|
|-7/9-9-9--7/9-9-9------8--8-8-8-8-8-----|
|-7/9-9-9--7/9-9-9------6--6-6-6-6-6-----|
|-5/7-7-7--5/7-7-7-...--6--6-6-6-6-6-...-|

Ещё песни с аккордами исполнителя/группы «Anathema»