Sleep In Sanity
Anathema
AnathemaSleep In Sanity Прислать видеоурок
Anathema Sleep In Sanity
Добавлено: — , Просмотров: 194 (+0)

  Добавить в избранное

Sleep In Sanity

Guitar 1
Riff 1
|-----|----------------------|----------------------------------|
|-----|----------------------|----------------------------------|
|-----|----------------------|----------------------------------|
|---2-|-5----2-----2---5-7-7-|-4-5~--4p2h4~--4bhr-2-10-9-7/9-2~-|
|---2-|-3----2-----2---3-5-5-|----------------------------------|
|-0-0-|----0-0---0-0---------|----------------------------------|
  .        .     .
Riff 2
|--------------------------------------------------|
|--------------------------------------------------|
|--------------------------------------------------|
|-------7~------7~-------12~--------12--12-14-14~~-|
|-----5-------7-------10---------12----------------|
|-0-3-------5-------8---------10-------------------|
Bridge
|---------------------|
|-------------------5-|
|-9~--7-7~--5-5-4-4---|
|---------------------|
|---------------------|
|---------------------|
Bridge 2
|---------------------------------------|
|-12-10-10-10-8-8-8-7-7-7-5-5-5-3-3-3-2-|
|-12-11-11-11-9-9-9-7-7-7-5-5-5-4-4-4-2-|
|---------------------------------------|
|---------------------------------------|
|---------------------------------------|
Riff 3
|-----------------------------------------------|
|-----------------------------------------------|
|-4---2------------4---2------------2-4-2h4-----|
|---5---2~-----------5---2~-----------------5---|
|-----------0-2-3------------0-2-3------------5-|
|-----------------------------------------------|
            . .              . .
Riff 4
|----------------------------|------------------------------------|
|----------------------------|------------------------------------|
|----------------------------|------------------------------------|
|-7-5-7--9/10--9-9h10-9-7~-|-12-10-12--14/17--14-14h15-14-12~-|
|----------------------------|------------------------------------|
|----------------------------|------------------------------------|
Fill in after 2nd time
|--------------------------|
|--------------------------|
|--------------------------|
|-14--15-17p15p14~--15-14~-|
|--------------------------|
|--------------------------|
Riff 5
|-----------------------------|------------------------------------|
|-----------------------------|------------------------------------|
|-----------------------------|------------------------------------|
|-----7-5-7~------9-9h10-9-7~-|-----12-10-12~------14-14h15-14-12~-|
|-0-0---------0-0-------------|-0-0------------0-0-----------------|
|-----------------------------|------------------------------------|
Fill in after 2nd time
|-------------------|
|-------------------|
|-------------------|
|-14-15-14-------14-|
|----------15-17----|
|-------------------|
Lead on riff 1
|----------------------------------------------------------------------|
|-8-7~-----------------------------------------------------------------|
|-------5-4~--4-5-7-9~--7-8-10-3~--10bfr--12-13-12-10h12p10~--10h12-8~-|
|----------------------------------------------------------------------|
|----------------------------------------------------------------------|
|----------------------------------------------------------------------|

|----------------|
|-7-73~--3/5-5~-|
|----------------|
|----------------|
|----------------|
|----------------|
Guitar 2
Riff 1
|-----|--------------------|-------------------|
|-----|--------------------|-------------------|
|-----|-7------------7-9-9-|-------------------|
|---2-|-5----2----2--5-7-7-|-------------------|
|---2-|------2----2--------|-3~---2~---3~------|
|-0-0-|----0-0--0-0--------|----------------5~-|
Bridge 2
|------------------------------------------|
|------------------------------------------|
|------------------------------------------|
|-14-12-12-12-10-10-10-9-9-9-7-7-7-5-5-5-4-|
|------------------------------------------|
|------------------------------------------|
Riff 3
|------------------|------------------|
|------------------|------------------|
|------------------|------------------|
|-2~---------------|------------------|
|-----3-2~---0-2-3-|-5~--3-5~---0-2-3-|
|------------------|------------------|
Riff 4
|---------------|-----------------|
|---------------|-----------------|
|---------------|-----------------|
|-7----9----|-12----14----|
|---------------|-----------------|
|---------------|-----------------|
Riff 5
|--------------------------------|------------------------------------|
|--------------------------------|------------------------------------|
|-----9-7-9~------11-11h12-11-9~-|-----14-12-14~------16-16h17-16-14~-|
|--------------------------------|------------------------------------|
|-0-0---------0-0----------------|-0-0------------0-0-----------------|
|--------------------------------|------------------------------------|
Outro riff
|---------------------------|
|---------------------------|
|---------------------------|
|-9~--9~--97-75-54-42-2-|
|-------------------------2-|
|-------------------------0-|

Ещё песни с аккордами исполнителя/группы «Anathema»