Suicide Veil
Anathema
AnathemaSuicide Veil Прислать видеоурок
Anathema Suicide Veil
Добавлено: — , Просмотров: 222 (+0)

  Добавить в избранное

Suicide Veil

key: h - hammer on
     p - pull off
     s - slide
   ... - echo
    () - silent sound

  new version ! (almost the full song)
 ----- first part (clean tone - or clinton)
        ! tune down E to D
 0:10 - 0:48
---------------------------------I---------------------------------
---------------------------------I---------------------------------
---------------------------------I-------1-------------------------
-------6-------0-----------------I---------------0-----------------
---4-------4-------4---0---2---0-I---4-------4-------4---0---2---0-
-4---4-------4-------4-------2---I-2---2-------2-------2-------2---

---------------------------------I---------------------------------
---------------------------------I---------------------------------
---------------------------------I---------------------------------
-------6-------0-----------------I-------6-------0-----------------
---4-------4-------4---0---2---0-I---4-------4-------4---0---2---0-
-4---4-------4-------4-------2---I-4---4-------4-------4-------2---

---------------------------------I---------------------------------
---------------------------------I---------------------------------
---------------------------------I---------------2-------2-1-------
-------6-------0-----------------I-------0-----0-------0-----4-----
---4-------4-------4---0---2---0-I---0-------0-------0-------------
-4---4-------4-------4-------2---I-0---0---------------------------
 0:49 - 1:01                       . another guitar steps in
-------------------------------------------0-----------0----------------------
-----------------------------------------2-----------2---3--------------------
---------------------------------------2-----------2--------------------------
------------------------------------------------------------------------------
-----------------------------------4----------(4)-----------------------------
-0-2-4---6---4-6-7---4-6-7---6---2-4------------------------------------------
 1:04 - 1:48
---------------------------------I---------------------------------
---------------------------------I---------------------------------
---------------------------------I---------------------------------
-------6-------0-----------------I-------6-------0-----------------
---4-------4-------4---0---2---0-I---4-------4-------4---0---2---0-
-4---4-------4-------4-------2---I-4---4-------4-------4-------2---

---------------------------------I---------------------------------
---------------------------------I---------------------------------
-------1-------------------------I-------------------2-------------
---------------0-----------------I-------6-------0-----------------
---4-------4-------4---0---2---0-I---4-------4---------------------
-2---2-------2-------2-------2---I-4---4-------4-------------------

---------------------------------I---------------------------------
---------------------------------I---------------------------------
---------------------------------I---------------------------------
-------6-------0-----------------I-------6-------0-----------------
---4-------4-------4---0---2---0-I---4-------4-------4---0---2---0-
-4---4-------4-------4-------2---I-4---4-------4-------4-------2---

--------------------------------- after this the keyboard's part coming...
--------------------------------- no guitars
---------------2-------2-1-------
-------0-----0-------0-----4-----
---0-------0-------0-------------
-0---0---------------------------
 2:15 - 2:35
-----------------------------------------------------------------
-----------------------------------------------------------------
-----------------------------------------------------------------
---4---4---4---0---0---0---6---4---4---4---4---0---0---0---6---4-
-----------------------------------------------------------------
-4---4---4---4---0---0---0---0---4---4---4---4---0---0---0---0---

-----------------------------------
-----------------------------------
-----------------------------------
-----------------------------------
-----------------------------------
-4---6---7---6---4---6-7---6-2---4-
 ----- second part distorted and else... just later or somebody else do it
 ----- ending part (acoustic raindrops)
        ! normal tuning EADGHe
 3:31 - 5:10
---0---1---0---1-----0---1---0---1---------3-1-3-1p0--------3-1-3-1p0----
---------------------------------------0h3--------------0h3--------------
-------------------------------------------------------------------------
-2---2---2---2-----2---2---2---2-----2----------------2------------------
-------------------------------------------------------------------------
-------------------------------------------------------------------------

---0---1---0---1-----0---1---0---1---------3-1-3-1p0--------3-1-3-1p0----
---------------------------------------0h3--------------0h3--------------
-------------------------------------------------------------------------
-2---2---2---2-----2---2---2---2-----2----------------2------------------
-------------------------------------------------------------------------
-------------------------------------------------------------------------

-------1-0--------------1-0---------------1-0--------------1-0-----------
-----------3---1------------0---1-------------3---1------------0---1-----
-----2-------2--------2------(2)--------2------(2)-------2------(2)------
---2----------------2-----------------2----------------2-----------------
-0----------------0------------------------------------------------------
------------------------------------0----------------0-------------------

-------1-0--------------1-0---------------1-0--------------1-0-----------
-----------3---1------------0---1-------------3---1----------------------
-----2-------2--------2------(2)--------2------(2)-------2---------------
---2----------------2-----------------2----------------2-----------------
-0----------------0------------------------------------------------------
------------------------------------0----------------0-------------------

---0---1---0---1-----0---1---0---1---------3-1-3-1p0--------3-1-3-1p0----
---------------------------------------0h3--------------0h3--------------
-------------------------------------------------------------------------
-2---2---2---2-----2---2---2---2-----2----------------2------------------
-------------------------------------------------------------------------
-------------------------------------------------------------------------

---0---1---0---1-----0---1---0---1---------3-1-3-1p0--------3-1-3-1p0----
---------------------------------------0h3--------------0h3--------------
-------------------------------------------------------------------------
-2---2---2---2-----2---2---2---2-----2----------------2------------------
-------------------------------------------------------------------------
-------------------------------------------------------------------------

-------1-0--------------1-0---------------1-0--------------1-0-----------
-----------3---1------------0---1-------------3---1------------0---1-----
-----2-------2--------2------(2)--------2------(2)-------2------(2)------
---2----------------2-----------------2----------------2-----------------
-0----------------0------------------------------------------------------
------------------------------------0----------------0-------------------

-------1-0--------------1-0---------------1-0--------------1-0-----------
-----------3---1------------0---1-------------3---1------------0---1-----
-----2-------2--------2------(2)--------2------(2)-------2------(2)------
---2----------------2-----------------2----------------2-----------------
-0----------------0------------------------------------------------------
------------------------------------0----------------0-------------------

-----------------0--------------------0------
-------------3-------3----------------3------
---------2---------------2------------2------
-----3-----------------------3--------3------
--------------------------------------2------
-0------------------------------------0------

Ещё песни с аккордами исполнителя/группы «Anathema»