Temporary peace
Anathema
AnathemaTemporary peace Прислать видеоурок
Anathema Temporary peace
Добавлено: — , Просмотров: 336 (+0)

 
Добавить в избранное

"A Fine Day To Exit" (2001)
Temporary peace

tunning: D G C F A d
Riff1
electric clean.         little change at 1:40
|-----------------0----------------------------------------------|
|---1-----------------------1------------------------------------|
|-------2-----3-----------------2-----3---0---3------------------|
|-0---0-----0---0---------0---0-----0---0---0---0----------------|
|----------------------------------------------------------------|
|----------------------------------------------------------------|
after beginning section of bass, just play chords:
  D9    A# 
|-0------1-------------------------------------------------------|
|-1------3-------------------------------------------------------|
|-2------3-------------------------------------------------------|
|-0------0-------------------------------------------------------|
|----------------------------------------------------------------|
|----------------------------------------------------------------|
2:28 just chords
 acoustic plays chords: F Dmi Ami A# Dmi F Ami A#  ...(F  and Dmi  are changing)
 electric:arpegio
|--5-----5-----5----6----------------------------------------------|
|--6-----6-----5----6----------------------------------------------|
|--5-----7-----5----7----------------------------------------------|
|--7-----7-----7----8-----etc.-------------------------------------|
|--8-----5-----7----8----------------------------------------------|
|--------------5----6----------------------------------------------|
ending: some interlude...

Ещё песни с аккордами исполнителя/группы «Anathema»