Under A Veil
Anathema
AnathemaUnder A Veil Прислать видеоурок
Anathema Under A Veil
Добавлено: — , Просмотров: 220 (+0)

  Добавить в избранное

Under A Veil (of Black Lace)

Only the acoustic piece.
E|---------0----------1----0--------0-----------------------------|
B|-------3---3------------------2---------------------------------|
G|----0--------0------------------0---0---------------------------|
D|---------------2------------2-----------------------------------|
A|--3--------------3-----3----------------------------------------|
E|----------------------------------------------------------------|

E|---------0----------1----0------0-------------------------------|
B|-------3---3------------------3---1-----------------------------|
G|----0--------0----------------------0---------------------------|
D|---------------0------------0-----------------------------------|
A|--2--------------2-----2----------------------------------------|
E|----------------------------------------------------------------|

E|---------0----------1----0--------0-----------------------------|
B|-------3---3------------------3---------------------------------|
G|-------------0------------------0---0-----------------------1/3-|
D|----2----------2------------2---------------------------3-------|
A|--0--------------0-----0---------------------------1------------|
E|----------------------------------------------------------------|

Ещё песни с аккордами исполнителя/группы «Anathema»