Underworld
Anathema
AnathemaUnderworld Прислать видеоурок
Anathema Underworld
Добавлено: — , Просмотров: 398 (+0)

 
Добавить в избранное

"a fine day to exit"
Underworld

Riff 1 (a & b) play 4x
a)
e|---------------------------------------------------|
b|---------------------------------------------------|
g|---------------------------------------------------|
D|------ 6~--6-------6~--6-------6~--6-------4h6---6-|
A|- 6-6----6----6-6----6----6-6----6----6-6------6---|
E|-4-4---------4-4---------4-4---------4-4-----------|
b)
e|---------------------------------------------------|
b|-------------------------------------0-------------|
g|-------1---1-------1---1-------1---1---1--2-1--1---|
D|---------2-----------2-----------2------------4----|
A|--2-2---------2-2---------2-2----------------------|
E|-0-0---------0-0---------0-0-----------------------|
Riff 2 (c 4x & b 1x) 2x
"if it keeps you sane then it's ok"
c)
e|--------------|
b|--------------|
g|--------------|
D|--6--4h6~~--6-|
A|-4-4-------4--|
E|--------------|
play "d)" several  times (listen to this part)
"I'd like to get some rest now if I can just ignore the truth"
d)
e|------------------|
b|------------------|
g|------------------|
D|------------------|
A|--(6)-(6)-(6)-(6)-|
E|-4---4---4---4----|
play "b)" then "a)" 1x
CHORUS
               Db5                       E 
"But I got to burn this weight out of my mind
        Db5                      A5 
running through my veins until I dissapear
                Db5                    E 
This feeling is over - this feeling is over me
                Db5                    E 
This feeling is over - this feeling is over me"
Gtr2 plays "e)" while Rhy. Gtr plays E D5 A5 
e)
   E                                               D5    A5 
e|---------------------------------------------|-------------|
b|---------------------------------------------|-------------|
g|-11-13-13-13-16--16-16-16-16-14-14-14-14-(11)|--1411-149-|
D|---------------------------------------------|-------------|
A|-9--11-11-11-14--14-14-14-14-12-12-12-12-(9)-|--129--127-|
E|---------------------------------------------|-------------|
*listen this part for rhy.
On "Climbing up my wall..." play riff1 2x
Play CHORUS
Play "e)" once
"ooohhhhh...."
f)
e|--------------|
b|--------------|
g|--------------|
D|-6---//-\--2-|
A|-6---//-\--2-|
E|-4--//--\--0-|
      *    *
*pick slide

Ещё песни с аккордами исполнителя/группы «Anathema»