We, The Gods
Anathema
AnathemaWe, The Gods Прислать видеоурок
Anathema We, The Gods
Добавлено: — , Просмотров: 226 (+0)

  Добавить в избранное

We, The Gods

I`ve tabed only the most interesting part
5:48 - 6:36
e|----------------------------------------------------------------------------------
B|----7h8-7---7-7h8-----7h8-7---7h8p7-5------10h12-10---8---7------7h8-7---7h8p7-5--
G|----------------------------------------------------------------------------------
D|----------------------------------------------------------------------------------
A|----------------------------------------------------------------------------------
E|-0-----------------8-------------------10---------------------0------------------- (Bass line)

e|----------------------------------------------------------------------------------
B|----7h8-7---7-7h8-----7h8-7---7h8p7-5------10h12-10---8h10-8-----7h8-7---5---7----
G|----------------------------------------------------------------------------------
D|----------------------------------------------------------------------------------
A|----------------------------------------------------------------------------------
E|-0-----------------8-------------------10---------------------0------------------- (Bass line)

e|----------------------------------------------------------------------------------
B|----7h8-7---7-7h8-----7h8-7--/12-10-8--10--10h12-10---8---7---------8--7---5------
G|----------------------------------------------------------------------------------
D|----------------------------------------------------------------------------------
A|----------------------------------------------------------------------------------
E|-0-----------------8-------------------10---------------------0------------------- (Bass line)

e|----------------------------------------------------------------------------------
B|----7h8-7---7-7h8-----7h8-7--/12-10-8--10--10h12-10---8---7----------------------
G|----------------------------------------------------------------------------------
D|----------------------------------------------------------------------------------
A|----------------------------------------------------------------------------------
E|-0-----------------8-------------------10---------------------0------------------- (Bass line)

6:36 - till the end
e|----------------------------------------------------------------------------
B|----------------------------------------------------------------------------
G|----------------------------------------------------------------------------
D|-2--5-4---2-4h5--5--4h5-4---4h5p4-2--7--7h9-7---5-5h7--2--4h5-4---4h5p4-2---
A|-2---------------3-------------------5-----------------2--------------------
E|-0-----------------------------------------------------0--------------------
sth like this i think (i hope so :)
i haven`t managed to tab the solo, `cause it`s too quiet

Ещё песни с аккордами исполнителя/группы «Anathema»