Where Shadows Dance
Anathema
AnathemaWhere Shadows Dance Прислать видеоурок
Anathema Where Shadows Dance
Добавлено: — , Просмотров: 237 (+0)

  Добавить в избранное

Where Shadows Dance

Key:
. - palm muted
/ - slide up
Tune 2.5 steps down: from high to low (B,F#,D,A,E,B)
Riff D1:
both guitars (2nd guitar enters after 2nd time)
B |------------------|
F#|------------------|
D |----------------2-| } 8x
A |----------2-3-5---|
E |-0-2-3-5----------|
B |------------------|
Riff D2:
B |-----------------------------------------|
F#|-----------------------------------------|
D |-------------------2-------------------2-| Guit.1
A |-------------2-3-5---------------2-3-5---|
E |---0-2-3-5---------------0-2-3-5---------|
B |-0---------0---------0-0-----------------|
  | .         .         . .                 |
B |-----------------------------------------|
F#|-----------------------------------------|
D |--/9-7-------------------9-7-------------| Guit.2
A |------10-9---7--------------10-9-7--(7)--|
E |--------------10-8-7--------------10-8-7-|
B |-0---------0---------0-0-----------------|
    .         .         . .             *
*Play (7) instead 8 second time.
Riff D3:
B |---------------|-------------------------------------|
F#|---------------|-------------------------------------|
D |---------------|-------------------------------------| Guit.1
A |------------2--|----------------------------------2--|
E |-2-2-5------3--|-------------------2-2-2-2-5------3--|
B |-0-0-3-0000----|-------------------0-0-0-0-3-0000----|
  | . . . ....    |                       . . . ....    |
B |---------------|-------------------------------------|
F#|---------------|-------------------------------------|
D |-4-------------|-------------------------------------| Guit.2
A |---------------|----------------1--------------------|
E |-2-------------|-2-2-2-2-5------2--------------------|
B |---------------|-0-0-0-0-3-0000----------------------|
                  |     . . . ....                      |
                  |                                     |
                  |----Play this part until fadeout-----|

Ещё песни с аккордами исполнителя/группы «Anathema»