Carry On
Angra
AngraCarry On Прислать видеоурок
Angra Carry On
Добавлено: — , Просмотров: 272 (+1)

 
Добавить в избранное

Carry On

Tablature explanation:
\/ : slide
h : hammer
p : pull-off
b : bend
br : bend and release

INTRO:         A5              D5  D5   A5             C5       B5 
             x4                      x4
|--------------|--------|--------------|----------------|
|--------------|--------|--------------|----------------|
|*------------*|--7---7-|*------------*|----------------|
|*-7--10-9-10-*|--7---7-|*-7--10-9-10-*|-----10-------9-|
|--------------|--5---5-|--------------|-----10-------9-|
|--------------|--------|--------------|--8-8-8---7-7-7-|
 A5              D5  D5   D5          E5 
             x4
|--------------|--------|-----4-5--4--4---5-7-----------|
|--------------|--------|-6-6-------------7-9-----------|
|*------------*|--7---7-|-7-7-9-10-9--9-----------------|
|*-7--10-9-10-*|--7---7-|-------------------------------|
|--------------|--5---5-|-------------------------------|
|--------------|--------|-------------------------------|
 A5               D5  D5   A5             C5       B5 
              x4                      x4
|---------------|--------|--------------|----------------|
|------5-3--5---|--------|------5-3--5--|----------------|
|*-5-----------*|--7---7-|*-5----------*|----------------|
|*-7--10-9-10--*|--7---7-|*-7--10-9-10-*|-----10-------9-|
|---------------|--5---5-|--------------|-----10-------9-|
|---------------|--------|--------------|--8-8-8---7-7-7-|
 A5              D5  D5   D5          E5 
             x4
|--------------|--------|-----4-5--4--4---5-7-----------|
|--------------|--------|-6-6-------------7-9-----------|
|*------------*|--7---7-|-7-7-9-10-9--9-----------------|
|*-7--10-9-10-*|--7---7-|-------------------------------|
|--------------|--5---5-|-------------------------------|
|--------------|--------|-------------------------------|

Both guitars:
|-12-17p12--12------------12--12-|-15-14h15-14---------------------------|
|---------13--13---13-------13---|------------15--15------------15-15-15-|
|----------------14---14---------|--------------16--16-------16----------|
|-----------------------14-------|--------------------17---17------------|
|--------------------------------|-----------------------17--------------|
|--------------------------------|---------------------------------------|

|-----4-5--4--4---5-7-|
|-6-6-------------7-9-|
|-7-7-9-10-9--9-------|
|---------------------|
|---------------------|
|---------------------|

  gtr. 1
|-13-12-10------------------------------------------------------------|
|----------13-12-10-9-10-12-10----------------------------------------|
|------------------------------12-10-9-----------10-9-7---------------|
|--------------------------------------12-10-9-7--------10-9-7-6-7-9-7|
|---------------------------------------------------------------------|
|---------------------------------------------------------------------|
|                                                                     |
| gtr. 2                                                              |
|-17-16-13------------------------------------------------------------|
|---------17-15-13-12-13-15-13-12-------------------------------------|
|---------------------------------14-12------------14-13--------------|
|--------------------------------------15-14-12----------15-14-12-----|
|-----------------------------------------------15----------------15--|
|---------------------------------------------------------------------|

                                   With bass solo
|--------------------------------|------------------------------------|
|--------------------------------|------------------------------------|
|--------------------------------|------------------------------------|
|-6---7--9---7-------------------|------------------------------------|
|--------------10--8--7----------|-0-0-0-0-0-0-0-0-0-0-0-0-0-0-0-0-0--|
|-----------------------10-8-7-5-|------------------------------------|
|                                                                     |
|                                                                     |
|                                                                     |
|--------------------------------|------------------------------------|
|--------------------------------|------------------------------------|
|--------------------------------|------------------------------------|
|-------12-----------------------|------------------------------------|
|-14-15----15-14-12--------------|-0-0-0-0-0-0-0-0-0-0-0-0-0-0-0-0-0--|
|-------------------15-13-12-10-8|------------------------------------|
simple minded...          x2
|----------------------------|----------------------------------------|
|----------------------------|----------------------------------------|
|*--------------------------*|-7---(7)-----7-7--5---------5-----------|
|*-7---------7-7------------*|-7---(7)-----7-7--5---------5--5-5-5-5--|
|--7---------7-7-------------|-5---(5)-----5-5--3-3-3-3-3-3--5-5-5-5--|
|--5-5-5-5-5-5-5-5-5-5-5-5-5-|-------------------------------3-3-3-3--|
                           x2
|----------------------------|----------------------------------------|
|----------------------------|----------------------------------------|
|*--------------------------*|----------------------------------------|
|*-7---------7-7------------*|----------------------------------------|
|--7---------7-7-------------|-3--3-3-3-3-3-3---3-3-3-3-3-3-----------|
|--5-5-5-5-5-5-5-5-5-5-5-5-5-|-1--1-1-1-1-1-1----------------3-3-3-3--|

Pre-chorus:
Follow your steps...
|----------------------------------------------------------------------
|----------------------------------------------------------------------
|-7--(7)-------------------------------------5-------------------------
|-7--(7)--7---5-5---3---------3-3---------3--5--5-5--------------------
|-5--(5)--7---5-5---3---------3-3---------3--3--5-5------3-----3-----3-
|---------5---3-3---1-1-1-1-1-1-1-1-1-1-1-1-----3-3--1-1-1-1-1-1-1-1-1-

--------------------------------------------------|
--------------------------------------------------|
-------2------------------------------------------|
-------2--5-5--3---------3-3---------3--2-2-2-2-2-|
----3--0--5-5--3---------3-3---------3--2-2-2-2-2-|
1-1-1-----3-3--1-1-1-1-1-1-1-1-1-1-1-1--0-0-0-0-0-|
A5               D5  D5   A5             C5       B5 
              x4                           x4
|---------------|-------------|--------------|----------------|
|------5-3--5---|-------------|------5-3--5--|----------------|
|*-5-----------*|-----7-----7-|*-5----------*|----------------|
|*-7--10-9-10--*|-----7-----7-|*-7--10-9-10-*|-----10-------9-|
|---------------|-5-5-5-5-5-5-|--------------|-----10-------9-|
|---------------|-------------|--------------|--8-8-8---7-7-7-|
 A5              D5  D5   D5          E5 
             x4
|--------------|--------------|-----4-5--4--4---5-7-----------|
|--------------|--------------|-6-6-------------7-9-----------|
|*------------*|-----7------7-|-7-7-9-10-9--9-----------------|
|*-7--10-9-10-*|-----7------7-|-------------------------------|
|--------------|-5-5-5--5-5-5-|-------------------------------|
|--------------|--------------|-------------------------------|
Now we have to face...
|----------------------------|----------------------------------------|
|----------------------------|----------------------------------------|
|*--------------------------*|-7---(7)-----7-7--5---------5-----------|
|*-7---------7-7------------*|-7---(7)-----7-7--5---------5--5-5-5-5--|
|--7---------7-7-------------|-5---(5)-----5-5--3-3-3-3-3-3--5-5-5-5--|
|--5-5-5-5-5-5-5-5-5-5-5-5-5-|-------------------------------3-3-3-3--|
                           x2
|----------------------------|----------------------------------------|
|----------------------------|----------------------------------------|
|*--------------------------*|----------------------------------------|
|*-7---------7-7------------*|----------------------------------------|
|--7---------7-7-------------|-3--3-3-3-3-3-3---3-3-3-3-3-3-----------|
|--5-5-5-5-5-5-5-5-5-5-5-5-5-|-1--1-1-1-1-1-1----------------3-3-3-3--|

Pre-chorus:
Follow your steps...
|----------------------------------------------------------------------
|----------------------------------------------------------------------
|-7--(7)-------------------------------------5-------------------------
|-7--(7)--7---5-5---3---------3-3---------3--5--5-5--------------------
|-5--(5)--7---5-5---3---------3-3---------3--3--5-5------3-----3-----3-
|---------5---3-3---1-1-1-1-1-1-1-1-1-1-1-1-----3-3--1-1-1-1-1-1-1-1-1-

--------------------------------------------------|
--------------------------------------------------|
-------2------------------------------------------|
-------2--5-5--3---------3-3---------3--5-5-5-5-5-|
----3--0--5-5--3---------3-3---------3--5-5-5-5-5-|
1-1-1-----3-3--1-1-1-1-1-1-1-1-1-1-1-1--3-3-3-3-3-|

Chorus:
So carry on...
|---------------------------------------------------------------------|
|---------------------------------------------------------------------|
|---------------------------------------------------------------------|
|-5-----2------------------5--5-5-5-5-5-------------------------------|
|-3--5--0-2--3--3-3-3-3-3--3--3-3-3-3-3-------------------------------|
|----3----0--1--1-1-1-1-1---------------3-3-3-3-3-3-3-3-3-3-3-3-3-3---|

|--------------------------------------------------|
|--------------------------------------------------|
|-----------4-5------------------------------------|
|-5-5----2-------------------------5--5-5-5-5-5--5-|
|-3-2----0--2-3-5--2--3--3-3-3-3-3-3--3-3-3-3-3--5-|
|-----3---------3--0--1--1-1-1-1-1---------------3-|
 A5              D5  D5 
             x4
|--------------|--------|
|--------------|--------|
|*------------*|--7---7-|
|*-7--10-9-10-*|--7---7-|
|--------------|--5---5-|
|--------------|--------|

1st solo
gtr.1
        bend                sl
|-------------------|---------------|---------------------------------|
|-------------------|---------------|-10------11-------11h13-10-------|
|10-10--12b-(14)-12-|-10-10-12/14-12|---10-10----10-10----------10-12-|
|-------------------|---------------|---------------------------------|
|-------------------|---------------|---------------------------------|
|-------------------|---------------|---------------------------------|

|-------------------------|
|-------------------------|
|-10-------12-------12-14-|
|----12-12----12-12-------|
|-------------------------|
|-------------------------|

|----------------------------------------------------|
|-------------11--------11h14p11---------------------|
|-14p10h12h14-----10h12----------14p12p10------------|
|-----------------------------------------14p12p11---|
|----------------------------------------------------|
|----------------------------------------------------|
|                                                    |
|                                                    |
|-------------10-------10--12p10---------------------|
|-11p10h11h14----11h14-----------14p11p10------------|
|--------------------------------------------12p9p8--|
|----------------------------------------------------|
|----------------------------------------------------|
|----------------------------------------------------|
  gtr.1
        bend                sl
|-------------------|------------------|---------------------------------|
|-------------------|------------------|-10------11-------11h13-10-------|
|10-10-10-12b-(14)12|-10-10-10-12/14-12|---10-10----10-10----------10-12-|
|-------------------|------------------|---------------------------------|
|-------------------|------------------|---------------------------------|
|-------------------|------------------|---------------------------------|
|                                                                        |
| gtr.2                                                                  |
|       bend                                                             |
|-------------------|------------------|--8-------10--------12h13--------|
|-------------------|----------13h15-13|----10-10----10-10-------13-11h13|
|-------------------|-14-14-14---------|---------------------------------|
|12-12-12-14b(16)14-|------------------|---------------------------------|
|-------------------|------------------|---------------------------------|
|-------------------|------------------|---------------------------------|
  gtr.1
|-----------------------------------|
|--------------------------9-10-12--|
|-10---12----12br(14)--10-----------|
|-----------------------------------|
|-----------------------------------|
|-----------------------------------|
|                                   |
|                                   |
| gtr.2                             |
|-----------------------------8-10--|
|-10-11-10-11-11br(13)--10-12-------|
|-----------------------------------|
|-----------------------------------|
|-----------------------------------|
|-----------------------------------|

2nd solo:
gtr. 1
|-----------------------17-19h20p19p17---19---------|--17-------20-17----
|---------------------17---------------20---20b(22)-|-----20-17-------20-
|-------------------17------------------------------|--------------------
|-----------------19--------------------------------|--------------------
|--10h11h12--15-19----------------------------------|--------------------
|---------------------------------------------------|--------------------

17-------------------------------------------------------|---------------
--20-17---17---------------17-20-17-------17-------------|---------10----
-------20---20-19-17-19-20----------20-19----20-19-17-19-|-9-10-12----12-
---------------------------------------------------------|---------------
---------------------------------------------------------|---------------
---------------------------------------------------------|---------------

----------------------15----------------------17-------------15----------
----------12-13-10-12----13-12----13-12----13----13-12----13----13-12----
10-9-10-12---------------------14-------14-------------14-------------14-
-------------------------------------------------------------------------
-------------------------------------------------------------------------
-------------------------------------------------------------------------

---------------12-13/17-19-20-22br(24)--|
-13b(15)-12-13--------------------------|
----------------------------------------|
----------------------------------------|
----------------------------------------|
----------------------------------------|

3rd solo
gtr. 2
|-17p13-----17p13-17p13-15p12-------15p12--------|--------12-15-----------
|------15---------------------13----------13-----|-15b(17)-----15br(17)-15
|*-------14----------------------14----------14-*|------------------------
|*----------------------------------------------*|------------------------
|------------------------------------------------|------------------------
|------------------------------------------------|------------------------

--19-20-19h20p19p17---19-20-19----|-20-17-----20-17-----------------------
-------------------------------20-|------18--------18---------------------
----------------------------------|--------19--------19----------------17-
----------------------------------|---------------------19----------19----
----------------------------------|------------------------20-17-20-------
----------------------------------|---------------------------------------

------17---15-17---------------------------------------|
---18---18------18-15----------------13-12-13-12h13p12-|
-19-------------------14----------14-------------------|
-------------------------15-12-15----------------------|
-------------------------------------------------------|
-------------------------------------------------------|
  gtr.1
|-------------12--14---16-----------|
|------9--12------------------------|
|---9-------------------------------|
|-----------------------------------|
|-----------------------------------|
|-----------------------------------|
|                                   |
|                                   |
| gtr.2                             |
|-------------16---17---19----------|
|-----12--15------------------------|
|--13-------------------------------|
|-----------------------------------|
|-----------------------------------|
|-----------------------------------|

solo bass and keyboards and then:
|-----------------------------------------------------------------------------
|-----------------------------------------------------------------------------
|*----------------------------------------------------------------------------
|*----------------------------------------------------------------------------
|---------5p3--------7h9---9h10-------12p10---------7p5------------5p3--------
|-0-0-0-0----0-0-0-0----0-0----0-0-0-0------0-0-0-0----7p5-0-0-0-0----0-0-0-0-
                                         x2
--------------------------------------------|---------------------------------|
--------------------------------------------|---------------------------------|
-------------------------8-9-11-13-11-9-8-6*|-5----11-13-14-13-11-13-14---2---|
-------------------7-6---9-9-11-13-11-9-9-6*|-5-12-12-14-14-14-14-14-14---2---|
7h9---9h10-----2---5-4----------------------|-3---------------------------0---|
---0-0-----3-5---5--------------------------|---------------------------------|

Pre-chorus:
Follow your steps...
|----------------------------------------------------------------------
|----------------------------------------------------------------------
|-7--(7)-------------------------------------5-------------------------
|-7--(7)--7---5-5---3---------3-3---------3--5--5-5--------------------
|-5--(5)--7---5-5---3---------3-3---------3--3--5-5------3-----3-----3-
|---------5---3-3---1-1-1-1-1-1-1-1-1-1-1-1-----3-3--1-1-1-1-1-1-1-1-1-

----------------------------------------------------------|
----------------------------------------------------------|
-------2--------------------------------------------------|
-------2--5-5--3---------3-3---------3--5-5-5-5-5-5-5-5-5-|
----3--0--5-5--3---------3-3---------3--5-5-5-5-5-5-5-5-5-|
1-1-1-----3-3--1-1-1-1-1-1-1-1-1-1-1-1--3-3-3-3-3-3-3-3-3-|

Chorus:
So carry on...
|---------------------------------------------------------------------|
|---------------------------------------------------------------------|
|---------------------------------------------------------------------|
|-5-----2------------------5--5-5-5-5-5-------------------------------|
|-3--5--0-2--3--3-3-3-3-3--3--3-3-3-3-3-------------------------------|
|----3----0--1--1-1-1-1-1---------------3-3-3-3-3-3-3-3-3-3-3-3-3-3---|

|--------------------------------------------------|
|--------------------------------------------------|
|-----------4-5------------------------------------|
|-5-5----2-------------------------5--5-5-5-5-5--5-|
|-3-2----0--2-3-5--2--3--3-3-3-3-3-3--3-3-3-3-3--5-|
|-----3---------3--0--1--1-1-1-1-1---------------3-|

Chorus:
So carry on...
|---------------------------------------------------------------------|
|---------------------------------------------------------------------|
|---------------------------------------------------------------------|
|-7-----4------------------7--7-7-7-7-7-------------------------------|
|-5--7--2-4--5--5-5-5-5-5--5--5-5-5-5-5-------------------------------|
|----5----2--3--3-3-3-3-3---------------5-5-5-5-5-5-5-5-5-5-5-5-5-5-5-|

|--------------------------------------------------|
|--------------------------------------------------|
|-----------6-7------------------------------------|
|-7-7----4-------------------------7--7-7-7-7-7--7-|
|-5-4----2--4-5-7--4--5--5-5-5-5-5-5--5-5-5-5-5--7-|
|-----5---------5--2--3--3-3-3-3-3---------------5-|
                                                       x4
|----------------------------------------|---------------|-------------
|----------------------------------------|------7-5--7---|-------------
|----------------------------------------|*-7-----------*|-------------
|-7-----4------------------7--7-7-7-7-7--|*-9--12-11-12-*|-------------
|-5--7--2-4--5--5-5-5-5-5--5--5-5-5-5-5--|---------------|-----5-5-5-5-
|----5----2--3--3-3-3-3-3----------------|---------------|-7-5-3-3-3-3-

------------------------|---------------|----------------------------|
------------------------|------7-5--7---|----------------------------|
------------------------|*-7-----------*|----------------------------|
------------------------|*-9--12-11-12-*|----------------------------|
-7---------7-7---------7|---------------|-----5---------5----------5-|
-5-5-5-5-5-5-5-5-5-5-5-5|---------------|-7-5-3-3-3-3-3-3-3-3-3-3--3-|

Ещё песни с аккордами исполнителя/группы «Angra»