Z.I.T.O.
Angra
AngraZ.I.T.O. Прислать видеоурок
Angra Z.I.T.O.
Добавлено: — , Просмотров: 279 (+0)

  Добавить в избранное

Z.I.T.O.

e -------------------------------------------------------------------------|
B -------------------------------------------------------------------------|
G -------------------------------------------------------------------------|
D -------------------------------------------------------------------------|
A -------------------------------------------------------------------------|
E -7-7-7-7-7-7-7-7-7-7-7-7-7-7-7-7-7-7-7-7-7-7-7-7-7-7-7-7-7-7-7-7-7-7-7-7-|
              Some                 how                   I
              The                  turn                  is
              New                  world                 was
e ---------------------------------------------------------------------
B ---------------------------------------------------------------------
G ---------------------------------------------------------------------
D ---------------------------------------------------------------------
A --9------------------------------12-------------12-12-------------12-
E --7-7-7-7-7-7-7-7-7-7-7-7-7-7-7--10-10-10-10-10-10-10-10-10-10-10-10-
   turn                    a           round       and  see       My
   close                   new         cen          tu  ry        still
  born                    out         of          man's dreams    Now
e -----------------------------------------------------------------------
B -----------------------------------------------------------------------
G -----------------------------------------------------------------------
D -----------------------------------------------------------------------
A -------9-----------------------------7---------7-7-7--9----------------
E -------7-7-7-7-7-7-7-7-7-7-7-7-7-7-7-5-5-5-5-5-5-4-5--7-7-7-7-7-7-7-7--
    ner-es              break            down        in      side
    peo                 ple            think they're kings
    we                  walk             on      our      own
e ----------------------------------------------------------------------------
B ----------------------------------------------------------------------------
G ----------------------------------------------------------------------------
D ----------------------------------------------------------------------------
A -12-------------12-12-------------12---5---------5-----5-----5--4-----4-7-9-
E -10-10-10-10-10-10-10-10-10-10-10-10---3-3-3-3-3-3-3-3-3-3-3-3--2-2-2-2-----
Riff a utiliser de "maybe you might know...." a "what is right to say"
     Down the weak  ness      of my soul
     swimming naked           of be liefs
e ----------------------------------------------------------
B ----------------------------------------------------------
G ----------------------------------------------------------
D -7---------7--7------------------------7--7---------------
A -5-5-5-5-5-5--5-5-5-5-5-5-5--4-4-4-4-4-4--4-4-4-4-4-4-4---
E ----------------------------------------------------------
     Lie the se crets           and I know there's
      And respon sa             bil i-ties  just
e --------------------------------------------------------
B --------------------------------------------------------
G --------------------------------------------------------
D -9----------9--9-------------------------9--9---------9-
A -7--7-7-7-7-7--7-7-7-7-7-7-7--6--6-6-6-6-6--6-6-6-6-6-6-
E --------------------------------------------------------
  some     thing         push       ing         back
  feel    the            sea    of              bliss
e ------------------------------------------------------------------
B ------------------------------------------------------------------
G ------------------------------------------------------------------
D -----------5-5-5-5-5------------5-5-5-5-5-------------------------
A -5---------5-5-5-5-5--5---------5-5-5-5-5-----------------10------
E -3-3-3-3-3-3-3-3-3-3--3-3-3-3-3-3-3-3-3-3----8-8-8-8-8-8--8-------
Riff a utiliser de "wish my hands..." a "some sense".
La seconde fois, vous devez utiliser ce riff a la fin de celui ci-dessus
e ------------------|          e -------------------------------------
B ------------------|          B -------------------------------------
G ------------------|          G -------------------------------------
D ------------------|          D -------------------------------------
A --------------7---|          A -----------7-10---10-----------------
E --5-5-5-5-5-5-5---|          E -6-----6-7---------------------------

    Like a teenager     dis   covery           what's more de
e -------------------------------------------------------------
B -------------------------------------------------------------
G --2------------------------------------------2---------------
D --2-------------------------5--------0--2----2---------------
A --0---------------3---------3-----------2----0---------------
E ------------------1------------------3-----------------------
    ligthful than   this
e --------------------------------------------------------------
B --------------------------------------------------------------
G --------------------------------------------------------------
D ------------------3-------------------------------------------
A -3----------------1-------------------------------------------
E -1---------------------------8-8-8-8-7-7-7-7-5-5-5-5-3-3-3-3--
Riff a utiliser de "Try to remember " a " as it is to beleave"
Le riff suivant doit кtre jouй plusieurs fois.
e --------------|
B --------------|
G --------------|    rйpйter jusqu'au solo
D ----------4---|
A --2-2-2-2-2---|
E --------------|

SOLO 1:(Kiko Loureiro)
B = bend
Sl = slide (I'll represent with a /)
~~ = vibrato
e -------------------------------------------------
B --22B--22----------------------------------------
G ----------19-22-19----19----------------19-18----
D -------------------22----22-21-19-21-22-------21-
A -------------------------------------------------
E -------------------------------------------------

e --------------------------------------------------------------------------
B -19-18----18----------------19----19--22-19----19----------------19----19-
G -------22----22-21-19-21-22----22-----------22----22-21-19-21-22----22----
D --------------------------------------------------------------------------
A --------------------------------------------------------------------------
E --------------------------------------------------------------------------

e ----------------------------------------------------------------
B --19B--17-15----15B---------------------------------------------
G ------------16------16-14----16--16-14--------------------------
D ---------------------------16-----------16-15-14-12-14-15-14-12-
A ----------------------------------------------------------------
E ----------------------------------------------------------------

e ------------------------------------------------------------
B ------------------------------------------------------------
G ------------------------------------------------------------
D --14-12----12-11----11-9----9-7---7-9-7---7-----------------
A --------14-------14------12-----9-------9---9-8-7-5---5-----
E ----------------------------------------------------7---7---

e -14/15/14-10----14/15/14-10----14/15/14-10----14-19B---------
B -------------12-------------12-------------12----------------
G -------------------------------------------------------------
D -------------------------------------------------------------
A -------------------------------------------------------------
E -------------------------------------------------------------

e -14-20-14-10-14-10-----10---------------------------------------
B --------------------12----12-----12-------------------------15B-
G -----------------------------11-----11----11-------------11-----
D ---------------------------------------12----12-------12--------
A ------------------------------------------------14-14-----------
E ----------------------------------------------------------------

e -----------------------------------------------14---
B -----------------------------12-15-18-------15------
G ----------14-16-19--------14----------14-16---------
D -------16-----------12-16---------------------------
A -14-17----------------------------------------------
E ----------------------------------------------------

e -17-19-17-14-14----------------------------15-16-17-
B ----------------19-18-17-16----15-17-19-19----------
G ----------------------------19----------------------
D ----------------------------------------------------
A ----------------------------------------------------
E ----------------------------------------------------

e -14-10----------------------10--------
B ----------------------10-15----15-10--
G -------14-11----11-14-----------------  Riff A
D -------------12-----------------------
A --------------------------------------
E --------------------------------------

e -16-12----------------------12--------
B ----------------------12-17----17-12--
G -------16-13----13-16-----------------  Riff Abis
D -------------14-----------------------
A --------------------------------------
E --------------------------------------

e -17-13----------------------13--------15-12-------------12----12-15-12----
B ----------------------13-18----18-13--------13----13-15----13----------13-
G -------17-14----14-17--------------------------12-------------------------
D -------------15-----------------------------------------------------------
A --------------------------------------------------------------------------
E --------------------------------------------------------------------------

e -15-10----10-12----10-15----10-15-10-15-19-15-10-19-10-------------------
B -------12-------12-------12----------------------------19-10-15-19-15-10-
G -------------------------------------------------------------------------
D -------------------------------------------------------------------------
A -------------------------------------------------------------------------
E -------------------------------------------------------------------------

e -------------------
B -19-10-15-19-15-10-     Aprиs ceci, reprendre les riffs A et Abis
G -------------------     et finir le solo comme зa:
D -------------------
A -------------------
E -------------------
Fin du 1e solo:
e -17-13----------------------13--------15-12-------------12----12-15-12----
B ----------------------13-18----18-13--------13----13-15----13----------13-
G -------17-14----14-17--------------------------12-------------------------
D -------------15-----------------------------------------------------------
A --------------------------------------------------------------------------
E --------------------------------------------------------------------------

e-15-17-15-14-12----12-17-12-14-15-17-22-24-22-17-15-14-15-17-22-24-22-17-15-14-
B----------------15-------------------------------------------------------------
G-------------------------------------------------------------------------------
D-------------------------------------------------------------------------------
A-------------------------------------------------------------------------------
E-------------------------------------------------------------------------------

e ------------------------------------------
B -14-12-11-12-14-12-11---------------------
G ----------------------7-5-4-5-7-5-4-5--3B-     fin du 1e solo
D ------------------------------------------
A ------------------------------------------
E ------------------------------------------
Pont entre les 2 solos
e --------------------------------------------------------------------
B -------3-----5------------------------------------------------------
G ----2--2--0--6------------------------------------------------------
D -4--2--4--0--5------------------------------------------------------
A -2--0--0--------4-5-4-2-4-5-4-2--4-5-4--2-4-5-4-2-------------------
E ----------3-----2-3-2-0-2-3-2-0--2-3-2--0-2-3-2-0-------------------

e ---------------------------------------------------
B ---------------------------------------------------
G ---------------------------------------------------
D ---------------------------------------------------
A -4---4-2-4---4-2---4-2-----4-2-----5-4-----7-5-----
E -2-0-2-0-2-0-2-0-------5-3-----5-3-----7-5-----9-7-

SOLO 2 (Rafael Bittencourt)
e -17-14----------14-17-14-17-14----------14-17-14--19-15----------15--
B -------15----15----------------15----15-----------------17----17-----
G ----------16----------------------16-----------------------16--------
D ---------------------------------------------------------------------
A ---------------------------------------------------------------------
E ---------------------------------------------------------------------

e -19-15-19-15----------15-19-15-15-12----------12-15-12-15-12----------12-
B -------------17----17----------------14----14----------------14----14----
G ----------------16----------------------12----------------------12-------
D -------------------------------------------------------------------------
A -------------------------------------------------------------------------
E -------------------------------------------------------------------------

e -15-12--17-12----12-17-12-14-17-21-17----------------14-
B --------------14----------------------19-17-17-12-15----
G --------------------------------------------------------
D --------------------------------------------------------
A --------------------------------------------------------
E --------------------------------------------------------

e -14-10----------------10-------14-12-12----------------------------
B -------12-10----10-12----14-15----------15-14-12---15B--14---------
G -------------12----------------------------------------------15-15-
D -------------------------------------------------------------------
A -------------------------------------------------------------------
E -------------------------------------------------------------------

e ----------------------------14-18-14-15-14-14-14-----------
B ----------14-------14-15-17----------------------17B-17-15-
G -------15----15-16-----------------------------------------
D -15-16-----------------------------------------------------
A -----------------------------------------------------------
E -----------------------------------------------------------

e ------------------------------19--22B-21~~~---------
B ----15-17-17B-17-17B-15----19-----------------------
G -16---------------------16--------------------------
D ----------------------------------------------------
A ----------------------------------------------------
E ----------------------------------------------------

e -22-18-19-16-19-15----------15-19-19--17-15-------15-14-------------------
B -------------------19-17-19-----------------19-17-------17-15-17-15-14----
G -----------------------------------------------------------------------16-
D --------------------------------------------------------------------------
A --------------------------------------------------------------------------
E --------------------------------------------------------------------------

e -------------------------------------------14-------------17-14-15-19--
B -15-14----------------------14-15-14-15-17----17-14-15-17--------------
G -------16-15-16-15-14-15-16--------------------------------------------
D -----------------------------------------------------------------------
A -----------------------------------------------------------------------
E -----------------------------------------------------------------------

e -14-19-19----19----18-19-18-14-17-14-14-19-14-14-19-14-19-14--19B-
B ----------19----19------------------------------------------------
G ------------------------------------------------------------------  Fin
D ------------------------------------------------------------------  du 2e solo
A ------------------------------------------------------------------
E ------------------------------------------------------------------
Le reste de la chanson reprend les diffйrents riffs du dйbut.

Ещё песни с аккордами исполнителя/группы «Angra»