Good Times
Animals
AnimalsGood Times Прислать видеоурок
Animals Good Times
Добавлено: — , Просмотров: 286 (+0)

  Добавить в избранное

Good Times

Here is the intro from "Good Times" by The Animals:
e|----------------------7--10--8--7--8--7---------------------|
B|-------------7--8--10-------------------10---8--10--8-------|
G|-------7--9--------------------------------------------7----|
D|------------------------------------------------------------|
A|------------------------------------------------------------|
E|------------------------------------------------------------|
Play it once more and then play:
e|-----------7-------|
B|----8--10----------|
G|-------------------|
D|-------------------|
A|-------------------|
E|-------------------|
The background guitar plays such thing (over all intro):
e|-----------8--7---------8--7--etc...|
B|----10--8--------10--8--------------|
G|------------------------------------|
D|------------------------------------|
A|------------------------------------|
E|------------------------------------|

Ещё песни с аккордами исполнителя/группы «Animals»