House Of The Rising Sun
Animals
AnimalsHouse Of The Rising Sun
Animals House Of The Rising Sun
Добавлено: — , Просмотров: 710 (+1)

  Добавить в избранное

House Of The Rising Sun

coляк
e|---------0------------0------------2------------1---
B|-------1---1--------1---1--------3---3--------1---1-
G|-----2------------0------------2------------2-------
D|---------------------------2-0----------------------
A|---0----------2-3-----------------------0-3---------
E|-0--------------------------------------------------

e|---------0------------0------------0-----------0----
B|-------1---1--------1---1--------0---0-------3---3--
G|-----2------------0------------1-------1---1--------
D|-----------------------------------------2----------
A|-0-0----------0-------------------------------------
E|----------------3----------0-0----------------------

e|---------0------------0------------2------------1---
B|-------1---1--------1---1--------3---3--------1---1-
G|-----2------------0------------2------------2-------
D|---------------------------2-0----------------------
A|---0----------2-3-----------------------0-3---------
E|-0--------------------------------------------------

e|---------0------------0-----------0-----|
B|-------1---1--------2---2-------1---1---|
G|-----2------------4-------4---2-------2-|
D|----------------------------0-----------|
A|-0-0----------0-------------------------|
E|----------------4-----0---4-------------|

Ещё песни с аккордами исполнителя/группы «Animals»