Knight jumps queen
Annihilator
AnnihilatorKnight jumps queen Прислать видеоурок
Annihilator Knight jumps queen
Добавлено: — , Просмотров: 248 (+1)

  Добавить в избранное

"Set the world on fire"
Knight jumps queen

Intro/Verse-Part:
G:-----------------------------------------------
D:-----------------------------------------------
A:---------------------------------------2-1-----
E:-3-0-0-3-2-1-0-0-3-0-3-0-4s3-0-0-3-0-0-----3-0-

G:--------------------
D:--------------------
A:--------------------
E:-0-3-0-3-0-0-3-3-0--
When it comes to change (i.e. from Verse to Chorus)
just the ending is a bit different with this off-beats
G:-----------------------------------------------5-5-------------
D:-----------------------------------------------7-7-------------
A:---------------------------------------2-1---------------------
E:-3-0-0-3-2-1-0-0-3-0-3-0-4s3-0-0-3-0-0-----3-0-----------------

Ещё песни с аккордами исполнителя/группы «Annihilator»