Sounds Good To Me
Annihilator
AnnihilatorSounds Good To Me Прислать видеоурок
Annihilator Sounds Good To Me
Добавлено: — , Просмотров: 240 (+0)

  Добавить в избранное

Sounds Good To Me

Intro
E------------0-----------|-----------0--------4--------4--------|-------
B---------------0--------|--------------0--------0--------0-----|-------
G---------3--------3~~~--|--------3--------3--------3--------3--|-------
D------4-----------------|-----4--------------------------------|-------
A------------------------|--------------------------------------|-------
E---2--------------------|--2-----------------------------------|--0----

E---------0-----------|--------0--------4--------4--------|-------------
B------------0--------|--0--0-----0--------0--------0-----|-------------
G------3--------3~~~--|--------------3--------3--------3--|--------3----
D---4-----------------|-----------------------------------|-----4-------
A---------------------|-----------------------------------|-------------
E---------------------|-----------------------------------|--2----------

E---0-----------|--|-----------0--------4--------4--------|--|----------
B------0--------|--|--------------0--------0--------0-----|--|----------
G---------3~~~--|--|--------3--------3--------3--------3--|--|----------
D---------------|--|-----4--------------------------------|--|-----4----
A---------------|--|--------------------------------------|--|----------
E---------------|--|--2-----------------------------------|--|--0-------

E------0--------------0--------------|--------4--4----------------------
B---------0--------0-----0-----------|--5--7--------5--7--7-----0-------
G---3--------3~~~--------------------|-----------------------------3----
D------------------------------------|----------------------------------
A------------------------------------|----------------------------------
E------------------------------------|----------------------------------

Chorus/Pre verse
E---------------|--------0--------0--------4--------0--------0----------
B------0--------|-----------4--------4-----------------4--------4-------
G---------3-----|--------------4--------4-----------------4--------4----
D---4--------4--|-------------------------------------------------------
A---------------|-----4--------------------------0----------------------
E---------------|-------------------------------------------------------

E---4--------------0-----------------0--------|--------0--------0-------
B---------------4-----4-----------4-----4-----|-----------4--------4----
G------------4-----------4-----4-----------4--|--------------4----------
D---------------------------------------------|-------------------------
A---------2-----------------2-----------------|-----4-------------------
E---------------------------------------------|-------------------------

E------4--------0--------0--------4--------------0-----------------0----
B------------------4--------4-----------------4-----4-----------4-------
G---4-----------------4--------4-----------4-----------4-----4----------
D-----------------------------------------------------------------------
A------------0--------------------------2-----------------2-------------
E-----------------------------------------------------------------------

Verse - Say Hello you can open your eyes....
E---------|--------------0-----------------------0----------------------
B---4-----|-----------0-----0-----------------0-----0-------------------
G------4--|--------8-----------8-----------8-----------8-----------4----
D---------|-----6-----------------6-----6-----------------6-----4-------
A---------|--4-----------------------4-----------------------2----------
E---------|-------------------------------------------------------------

E------0-----------------------0-----------|-----------------0----------
B---0-----0-----------------0-----0--------|--------------0-----0-------
G------------4-----------3-----------3-----|-----------8-----------8----
D---------------4-----4-----------------4--|--------6-------------------
A------------------4-----------------------|-----4----------------------
E------------------------------------------|----------------------------

E------------------0--------------------------0---------------|--------
B---------------0-----0--------------------0-----0------------|--------
G------------8-----------8-----------11-------------11--------|--------
D---6-----6-----------------6-----9---------------------9-----|--------
A------4-----------------------7---------------------------7--|--------
E-------------------------------------------------------------|--------

Bridge (We've all got problems..)
E---------------0-----------------------0-----------------------0-------
B------------0-----0-----------------0-----0-----------------0-----0----
G---------2-----------2-----------4-----------4-----------7-------------
D------4-----------------4-----6-----------------6-----8----------------
A---4-----------------------6-----------------------8-------------------
E-----------------------------------------------------------------------

E---------|--------------------0-----------------------0----------------
B---------|-----------------0-----0-----------------0-----0-------------
G---7-----|--------------2-----------2-----------4-----------4----------
D------8--|-----------4-----------------4-----6-----------------6-------
A---------|--------4-----------------------6----------------------------
E---------|-------------------------------------------------------------

E-----------------0----------------|------------------------------------
B--------------0-----0-------------|------------------------------------
G-----------9-----------9----------|------------------------------------
D-------10-----------------10------|------------------------------------
A---10-------------------------10--|------------------------------------
E----------------------------------|------------------------------------

TABLATURE EXPLANATION
----------                ----------                ----t---
----5h8--- Hammeron       ----(8)--- Ghost          ----6--- Tap
----------                ---------- Note           --------
----5p8--- Pulloff        ----------                --------
----------                ----------                -----p--
----5/8--- Slide Up       -----x---- Dead           -----7-- Pop
----------                ---------- Note           --s-----
----5\8--- Slide Down     ----------                --5----- Slap
----------                ||------|| Repeat         --------
----5~~~-- Vibrato        ||*----*||                ---5^--- Bend
----------                ||*----*||                --------
----------                ||------||                --------
----------                ----------                --------
-4:------- Time           ----------                --------
-4:------- Signature      ----------                --------
----------                ----------                --------
Rhythm:
w = whole note      W = dotted whole
h = half note       H = dotted half
q = quarter note    Q = dotted quarter
e = eighth note     E = dotted eighth
s = sixteenth note  S = dotted sixteenth
t = 32nd note       T = dotted 32nd
x = 64th note       X = dotted 64th
^ = triplet
naslazdaites!!

Ещё песни с аккордами исполнителя/группы «Annihilator»