Bring the Noise
Anthrax
AnthraxBring the Noise Прислать видеоурок
Anthrax Bring the Noise
Добавлено: — , Просмотров: 225 (+0)

  Добавить в избранное

"Attack of the Killer B's"
Bring the Noise

Tune down 1/2 step
Lots of Distortion and Palm Muting

Intro
  0:00
|--------------------------------------------------|
|--------------------------------------------------|
|--------------------------------------------------|
|--------------------------------------------------|
|--4-5-7-------------------4-5-7-------------------|
|--------0-0-0-0-0-0-0-0-0-------0-0-0-0-0-0-0-0-0-|
 0:06
|--------------------------------------------------|
|--------------------------------------------------|
|--------------------------------------------------|
|--------------------------------------------------|
|--4-5-7-------------------------------------------|
|--------0-0-0-0-0-0-0-0-0-0-0-0-0-0-0-0-0-0-0-0-0-|

Verse
 0:08
|-----------------------------------------------|
|-----------------------------------------------|
|---------3-------------------------------------|
|---------1-------------------------------------|
|-3---2-------2-----------2-------------2-------|
|-1---0-------0-----------0-------------0-------|

Fill 1
steady gliss w/ slide
  0:08
|--15/////18/////21-|--15/////18/////21-|--15/////18/////21-|
|-------------------|-------------------|-------------------|
|-------------------|-------------------|-------------------|
|-------------------|-------------------|-------------------|
|-------------------|-------------------|-------------------|
|-------------------|-------------------|-------------------|

Riff sometimes varies the end with this . . . listen for it
 0:22
|----------------------------------------------------|
|----------------------------------------------------|
|---------3------------------------------------------|
|---------1------------------------------------------|
|-3---2-------2--------------------------------------|
|-1---0-------0-----------0---0--0---0---0--0--0-----|

Chorus
 0:40
|-------------------------------|---------------------------------|
|-------------------------------|---------------------------------|
|-------------------------------|---------------------------------|
|-------------------------------|---------------------------------|
|-5--5---8\5---8\5--------------|-5--5---8\5---8\5----------------|
|-3--3---6\3---6\3---1--1--2--3-|-3--3---6\3---6\3---1--1--2--3---|

Interlude
 2:23
|---------------------------------------|
|---------------------------------------|
|-9--9--9--9----------------------------|
|-9--9--9--9-----5--7-------------------|
|-7--7--7--7-----5--7-------------------|
|----------------3--5--0--0--0--0--0--0-|

Outro
Trem Pick . . .
 3:02
|--------------------------------------------------------|
|-/---/---/---/---/--/---/---/---/---/----/----/----/----|
|-/---/---/---/---/--/---/---/---/---/----/----/----/----|
|-/---/---/---/---/--/---/---/---/---/----/----/----/----|
|-1---2---3---4---5--6---7---8---9---10---11---12---13\--|
|--------------------------------------------------------|
 3:08
|----------------------------------|------------|
|----------------------------------|------------|
|----------------------------------|------------|
|----------------------------------|----2-------|
|-3---3---3---3---3---3---3---3----|----2-------|
|-1---1---1---1---1---1---1---1----|----0-------|

Repeat parts as necessary throughout.
Enjoy!

Ещё песни с аккордами исполнителя/группы «Anthrax»