Intro To Reality
Anthrax
AnthraxIntro To Reality Прислать видеоурок
Anthrax Intro To Reality
Добавлено: — , Просмотров: 244 (+0)

 
Добавить в избранное

Intro To Reality

   G 
---------------------------------------------
---------------------------------------------
--------------------------------------------- } Repeats 2 times
-----0-----0-----0---5-----0-----0-----0-----
-------2-----2-----4---------2-----2-----4-2-
-3-3-----3-----3-------3-3-----3-----3-------
   C 
---------------------------------------------
---------------------------------------------
-----0-----0-----0---5-----0-----0-----0-----
-------2-----2-----4---------2-----2-----4-2-
-3-3-----3-----3-------3-3-----3-----3-------
---------------------------------------------
   G 
---------------------------------------------
---------------------------------------------
---------------------------------------------
-----0-----0-----0---5-----0-----0-----0-----
-------2-----2-----4---------2-----2-----4-2-
-3-3-----3-----3-------3-3-----3-----3-------

---------------------------------------------
---------------------------------------------
---------------------------------------------
-----3-0---3-0---3-1-3-----------------------
-1-1-----1-----1-----------3-0---3-0---3-0---
-----------------------1-1-----1-----1-----0-
So enjoy it!

Ещё песни с аккордами исполнителя/группы «Anthrax»