Milk (Ode to Billy)
Anthrax
AnthraxMilk (Ode to Billy) Прислать видеоурок
Anthrax Milk (Ode to Billy)
Добавлено: — , Просмотров: 266 (+0)

  Добавить в избранное

"Attack of the Killer B's"
Milk (Ode to Billy)

Tune down one half step

INTRO
e --------------------------------------------------------------------------
B --------------------------------------------------------------------------
G --------------------------------------------------------------------------
D --------------------------------------------------------------------------
A --------------------------------------------------------------------------
E --2----3----2------0---2---3---2-----2----3---2----0--2--3--5--3----------
                                                                repeat
  PM---------------  INTRO PART 2
e ------------------|--------------------------------------------------|----
B ------------------|--------------------------------------------------|----
G ------------------|o------------------------------------------------o|----
D --2-2-4-4-5-5-4-4-|o-4--5--4---2--4--5--4---4--5--4---2--4--5--7--5-o|----
A --2-2-4-4-5-5-4-4-|--4--5--4---2--4--5--4---4--5--4---2--4--5--7--5--|----
E --0-0-2-2-3-3-2-2-|--2--3--2---0--2--3--2---2--3--2---0--2--3--5--3--|----
For verse, play INTRO PART 2 much faster, with open E notes in between chords
CHORUS
e --------------------------------------------------------------------------
B --------------------------------------------------------------------------
G --4--5--4------------7--5--4-4-4-4---4--5--4------------------------------
D --4--5--4------------7--5--4-4-4-4---4--5--4------------------------------
A --2--3--2------------5--3--2-2-2-2---2--3--2------------------------------
E -----------000000000------------------------------------------------------
At "I should've been told"
e -----------------------
B -----------------------
G --4--5--7--5--4--2--5--
D --4--5--7--5--4--2--5--
A --2--3--5--3--2--0--3--
E -----------------------
SOLO
Just joking. I have no clue, if you can figure it out, more power to you.
Play the verse under it.
OUTRO
(Guitar One)
  PM---------------------------------------------
e --------------------------------------------------------------------------
B --------------------------------------------------------------------------
G --------------------------------------------------------------------------
D --------------------------------------------------------------------------
A --------------------------------------------------------------------------
E -9--9--8--8--7--7--5--5--4--4--3--3--2--2--1--1---------------------------
(Guitar Two)
                    pick slide
A ------------------X\-\-\-\------------------------------------------------
E ------------------X\-\-\-\------------------------------------------------
OUTRO PART 2
(both)
                         PM----
e |--------------------|----------------------------------------------------
B |--------------------|----------------------------------------------------
G |o------------------o|----------------------------------------------------
D |o-2--2---5-\-4-\-3-o|--7-7-7--8-8-8-8-8----------------------------------
A |--2--2---5-\-4-\-3--|--7-7-7--8-8-8-8-8----------------------------------
E |--0--0---3-\-2-\-1--|--5-5-5--6-6-6-6-6----------------------------------
                repeat 3x                       repeat PART 2 3x
OUTRO PART 3
  PM----------------------------      PM---
D |---------------------------------|-7-7-7--8-8-8-8-8-----------------------
A |---------------------------------|-7-7-7--8-8-8-8-8-----------------------
E |--0---2---3---0---7---6---5---3--|-5-5-5--6-6-6-6-6-----------------------
                        repeat 3x               repeat PART 3 3x
Retrun to OUTRO PART 2, go through again, fade out.

Ещё песни с аккордами исполнителя/группы «Anthrax»