Only
Anthrax
Anthrax Only
Добавлено: — , Просмотров: 330 (+0)

  Добавить в избранное

Only

(1)       = degree of bend
|--7^--|  = bend (one whole step)
\         = slide down
/         = slide up
~~    = palm mute
X         = percussive mute
|-5h6p5-| = hammer on, pull off
________  = tie
|--r9---| = release to from a bend

Intro
      Guitar 2
E||---------------------------------|---------------------------------||
B||---------------------------------|---------------------------------||
G||-4-4-4-4-4-4-4-4-4-4-4-4-4-4-4-4-|-4-4-4-4-4-4-4-4-4-4-4-4-4-4-4-4-||
D||-4-4-4-4-4-4-4-4-4-4-4-4-4-4-4-4-|-4-4-4-4-4-4-4-4-4-4-4-4-4-4-4-4-||
A||---------------------------------|---------------------------------||
e||-2-2-2-2-2-2-2-2-2-2-2-2-2-2-2-2-|-2-2-2-2-2-2-2-2-2-2-2-2-2-2-2-2-||
 ||   Guitar 3                      |                                 ||
 ||                                 |                                 ||
E||---------------------------------|---------------------------------||
B||---------------------------------|---------------------------------||
G||---------------------------------|---------------------------------||
D||-4-4-4-4-4-4-4-4-4-4-4-4-4-4-4-4-|-4-4-4-4-4-4-4-4-4-4-4-4-4-4-4-4-||
A||-2-2-2-2-2-2-2-2-2-2-2-2-2-2-2-2-|-2-2-2-2-2-2-2-2-2-2-2-2-2-2-2-2-||
e||---------------------------------|---------------------------------||
      Guitar 2
E||---------------------------------||
B||---------------------------------||
G||-4-4-4-4-4-4-4-4-4---------------||
D||-4-4-4-4-4-4-4-4-4---------------||
A||------------------------2/12\----||
e||-2-2-2-2-2-2-2-2-2---------------||
 ||   Guitar 3                      ||
 ||                                 ||
E||---------------------------------||
B||---------------------------------||
G||---------------------------------||
D||-4-4-4-4-4-4-4-4-4-2-2-2---------||
A||-2-2-2-2-2-2-2-2-2--------/12\---||
e||---------------------------------||
      Guitar 2
E||---------------------------------|---------------------------------||
B||---------------------------------|---------------------------------||
G||-4-4-4-4-4-4-4-4-4-4-4-4-4-4-4-4-|-4-4-4-4-4-4-4-4-4-4-4-4-4-4-4-4-||
D||-4-4-4-4-4-4-4-4-4-4-4-4-4-4-4-4-|-4-4-4-4-4-4-4-4-4-4-4-4-4-4-4-4-||
A||---------------------------------|---------------------------------||
e||-2-2-2-2-2-2-2-2-2-2-2-2-2-2-2-2-|-2-2-2-2-2-2-2-2-2-2-2-2-2-2-2-2-||
 ||   Guitar 3                      |                                 ||
 ||                                 |                                 ||
E||---------------------------------|---------------------------------||
B||---------------------------------|---------------------------------||
G||---------------------------------|---------------------------------||
D||-4-4-4-4-4-4-4-4-4-4-4-4-4-4-4-4-|-4-4-4-4-4-4-4-4-4-4-4-4-4-4-4-4-||
A||-2-2-2-2-2-2-2-2-2-2-2-2-2-2-2-2-|-2-2-2-2-2-2-2-2-2-2-2-2-2-2-2-2-||
e||---------------------------------|---------------------------------||
      Guitar 2
E||---------------------------------||
B||---------------------------------||
G||-4-4-4-4-4-4-4-4-4---------------||
D||-4-4-4-4-4-4-4-4-4---------------||
A||------------------------2/12\----||
e||-2-2-2-2-2-2-2-2-2---------------||
 ||   Guitar 3                      ||
 ||                                 ||
E||---------------------------------||
B||---------------------------------||
G||---------------------------------||
D||-4-4-4-4-4-4-4-4-4-2-2-2---------||
A||-2-2-2-2-2-2-2-2-2--------/12\---||
e||---------------------------------||
      Guitar 2
E||---------------------------------|---------------------------------||
B||---------------------------------|---------------------------------||
G||-4-4-4-4-4-4-4-4-4-4-4-4-4-4-4-4-|-4-4-4-4-4-4-4-4-4-4-4-4-4-4-4-4-||
D||-4-4-4-4-4-4-4-4-4-4-4-4-4-4-4-4-|-4-4-4-4-4-4-4-4-4-4-4-4-4-4-4-4-||
A||---------------------------------|---------------------------------||
e||-2-2-2-2-2-2-2-2-2-2-2-2-2-2-2-2-|-2-2-2-2-2-2-2-2-2-2-2-2-2-2-2-2-||
 ||   Guitar 3                      |                                 ||
 ||                                 |                                 ||
E||---------------------------------|---------------------------------||
B||---------------------------------|---------------------------------||
G||---------------------------------|---------------------------------||
D||-4-4-4-4-4-4-4-4-4-4-4-4-4-4-4-4-|-4-4-4-4-4-4-4-4-4-4-4-4-4-4-4-4-||
A||-2-2-2-2-2-2-2-2-2-2-2-2-2-2-2-2-|-2-2-2-2-2-2-2-2-2-2-2-2-2-2-2-2-||
e||---------------------------------|---------------------------------||
      Guitar 2
E||---------------------------------||
B||---------------------------------||
G||-4-4-4-4-4-4-4-4-4---------------||
D||-4-4-4-4-4-4-4-4-4---------------||
A||------------------------2/12\----||
e||-2-2-2-2-2-2-2-2-2---------------||
 ||   Guitar 3                      ||
 ||                                 ||
E||---------------------------------||
B||---------------------------------||
G||---------------------------------||
D||-4-4-4-4-4-4-4-4-4-2-2-2---------||
A||-2-2-2-2-2-2-2-2-2--------/12\---||
e||---------------------------------||
      Guitar 1&2
E||---------------------------------|---------------------------------||
B||---------------------------------|---------------------------------||
G||-4-4-4-4-4-4-4-4-4-4-4-4-4-4-4-4-|-4-4-4-4-4-4-4-4-4-4-4-4-4-4-4-4-||
D||---------------------------------|---------------------------------||
A||-2-2-2-2-2-2-2-2-2-2-2-2-2-2-2-2-|-2-2-2-2-2-2-2-2-2-2-2-2-2-2-2-2-||
e||---------------------------------|-3-3-3-3-3-3-3-3-3-3-3-3-3-3-3-3-||
      Guitar 2
E||---------------------------------|---------------------------------||
B||---------------------------------|---------------------------------||
G||-4-4-4-4-4-4-4-4-4-4-4-4-4-4-4-4-|-4-4-4-4-4-4-4-4-4-4-4-4-4-4-4-4-||
D||---------------------------------|---------------------------------||
A||-2-2-2-2-2-2-2-2-2-2-2-2-2-2-2-2-|-2-2-2-2-2-2-2-2-2-2-2-2-2-2-2-2-||
e||-2-2-2-2-2-2-2-2-2-2-2-2-2-2-2-2-|-3-3-3-3-3-3-3-3-3-3-3-3-3-3-3-3-||

E||---------------------------------|---------------------------------||
B||---------------------------------|---------------------------------||
G||-4-4-4-4-4-4-4-4-4-4-4-4-4-4-4-4-|-4-4-4-4-4-4-4-4-4-4-4-4-4-4-4-4-||
D||---------------------------------|---------------------------------||
A||-2-2-2-2-2-2-2-2-2-2-2-2-2-2-2-2-|-2-2-2-2-2-2-2-2-2-2-2-2-2-2-2-2-||
e||---------------------------------|-3-3-3-3-3-3-3-3-3-3-3-3-3-3-3-3-||

E||---------------------------------|---------------------------------||
B||---------------------------------|---------------------------------||
G||-4-4-4-4-4-4-4-4-4-4-4-4-4-4-4-4-|---------------------------------||
D||---------------------------------|---------2-----------------------||
A||-2-2-2-2-2-2-2-2-2-2-2-2-2-2-2-2-|---------2-----------------------||
e||-2-2-2-2-2-2-2-2-2-2-2-2-2-2-2-2-|---------0-----------------------||

E||---------------------------------|---------------------------------||
B||---------------------------------|---------------------------------||
G||-4-4-4-4-4-4-4-4-4-4-4-4-4-4-4-4-|-4-4-4-4-4-4-4-4-4-4-4-4-4-4-4-4-||
D||---------------------------------|---------------------------------||
A||-2-2-2-2-2-2-2-2-2-2-2-2-2-2-2-2-|-2-2-2-2-2-2-2-2-2-2-2-2-2-2-2-2-||
e||---------------------------------|-3-3-3-3-3-3-3-3-3-3-3-3-3-3-3-3-||

E||---------------------------------|---------------------------------||
B||---------------------------------|---------------------------------||
G||-4-4-4-4-4-4-4-4-4-4-4-4-4-4-4-4-|---------------------------------||
D||---------------------------------|---------2-----------------------||
A||-2-2-2-2-2-2-2-2-2-2-2-2-2-2-2-2-|---------2-----------------------||
e||-2-2-2-2-2-2-2-2-2-2-2-2-2-2-2-2-|---------0-----------------------||

E||---------------------------------||
B||---------------------------------||
G||---------------------------------||
D||---------------------------------||
A||---------------------------------||
e||-0-0-0-0-0-0-0-0-0-0-0-0-0-0-0-0-||

Verses 1
      PM......      PM......       PM......      PM......
E||----------------------------|----------------------------||
B||----------------------------|----------------------------||
G||----------------------------|----------------------------||
D||----------------------------|----------------------------||
A||----------------------------|----------------------------||
e||-7--7-7-7-7-5--7--7-7-7-7-5-|-7--7-7-7-7-5--7--7-7-7-7-5-||
    PM.............................
E||---------------------------------|----------------|---------------||
B||---------------------------------|----------------|---------------||
G||---------------------------------|----------------|---------------||
D||---------------------------------|-------6--------|-------5-------||
A||-5-----5-----5-----5-----5-------|-------6--------|-------5-------||
e||---7-7---7-7---7-7---7-7---7-7-7-|-------4--------|-------3-------||
      PM......      PM......       PM......      PM......
E||----------------------------|----------------------------||
B||----------------------------|----------------------------||
G||----------------------------|----------------------------||
D||----------------------------|----------------------------||
A||----------------------------|----------------------------||
e||-7--7-7-7-7-5--7--7-7-7-7-5-|-7--7-7-7-7-5--7--7-7-7-7-5-||
    PM.............................
E||---------------------------------|----------------|---------------||
B||---------------------------------|----------------|---------------||
G||---------------------------------|----------------|---------------||
D||---------------------------------|-------6--------|-------5-------||
A||-5-----5-----5-----5-----5-------|-------6--------|-------5-------||
e||---7-7---7-7---7-7---7-7---7-7-7-|-------4--------|-------3-------||

Pre-chorus
E||---------------------------------|---------------------------------||
B||---------------------------------|---------------------------------||
G||---------------------------------|---------------------------------||
D||------------7--------------------|-------------7-------------------||
A||--------5----------5-------5-----|---------5-----------------------||
e||----7------------------7---------|-----7---------------7----6---5--||

E||---------------------------------|---------------------------------||
B||---------------------------------|---------------------------------||
G||---------------------------------|---------------------------------||
D||------------6--------------------|-------------5-----------5-------||
A||--------5----------5-------------|---------5---5-------5-------5---||
e||---4-------------------5---4-----|-----3---------------------------||

E||---------------------------------|---------------------------------||
B||---------------------------------|---------------------------------||
G||---------------------------------|---------------------------------||
D||------------7--------------------|-------------7-------------------||
A||--------5----------5-------5-----|---------5-----------------------||
e||----7------------------7---------|-----7---------------7----6---5--||

E||---------------------------------|---------------------------------||
B||---------------------------------|---------------------------------||
G||---------------------------------|---------------------------------||
D||------------6--------------------|-------------5-----------5-------||
A||--------5----------5-------------|---------5---5-------5-----------||
e||---4-------------------5---4-----|-----3-----------------------0---||

E||---------------------------------|---------------------------------||
B||---------------------------------|---------------------------------||
G||------4--------------------------|---------------4-----------------||
D||------2---------------2-----2----|---------------2-----------------||
A||------2---------------2-----2----|---------------2-----------------||
e||------0---------------0-----0----|---------------0-----------------||

Chorus
E||---------------------------------|---------------------------------||
B||---------------------------------|---------------------------------||
G||-4-4-4-4-4-4-4-4-4-4-4-4-4-4-4-4-|-4-4-4-4-4-4-4-4-4-4-4-4-4-4-4-4-||
D||---------------------------------|---------------------------------||
A||-2-2-2-2-2-2-2-2-2-2-2-2-2-2-2-2-|-2-2-2-2-2-2-2-2-2-2-2-2-2-2-2-2-||
e||---------------------------------|-3-3-3-3-3-3-3-3-3-3-3-3-3-3-3-3-||

E||---------------------------------|---------------------------------||
B||---------------------------------|---------------------------------||
G||-4-4-4-4-4-4-4-4-4-4-4-4-4-4-4-4-|---------------------------------||
D||---------------------------------|---------2-----------------------||
A||-2-2-2-2-2-2-2-2-2-2-2-2-2-2-2-2-|---------2-----------------------||
e||-2-2-2-2-2-2-2-2-2-2-2-2-2-2-2-2-|---------0-----------------------||

E||---------------------------------|---------------------------------||
B||---------------------------------|---------------------------------||
G||-4-4-4-4-4-4-4-4-4-4-4-4-4-4-4-4-|-4-4-4-4-4-4-4-4-4-4-4-4-4-4-4-4-||
D||---------------------------------|---------------------------------||
A||-2-2-2-2-2-2-2-2-2-2-2-2-2-2-2-2-|-2-2-2-2-2-2-2-2-2-2-2-2-2-2-2-2-||
e||---------------------------------|-3-3-3-3-3-3-3-3-3-3-3-3-3-3-3-3-||

E||---------------------------------|---------------------------------||
B||---------------------------------|---------------------------------||
G||-4-4-4-4-4-4-4-4-4-4-4-4-4-4-4-4-|---------------------------------||
D||---------------------------------|---------2-----------------------||
A||-2-2-2-2-2-2-2-2-2-2-2-2-2-2-2-2-|---------2-----------------------||
e||-2-2-2-2-2-2-2-2-2-2-2-2-2-2-2-2-|---------0-----------------------||

E||---------------------------------||
B||---------------------------------||
G||---------------------------------||
D||---------------------------------||
A||---------------------------------||
e||-0-0-0-0-0-0-0-0-0-0-0-0-0-0-0-0-||

Verse 2
      PM......      PM......       PM......      PM......
E||----------------------------|----------------------------||
B||----------------------------|----------------------------||
G||----------------------------|----------------------------||
D||----------------------------|----------------------------||
A||----------------------------|----------------------------||
e||-7--7-7-7-7-5--7--7-7-7-7-5-|-7--7-7-7-7-5--7--7-7-7-7-5-||
    PM.............................
E||---------------------------------|----------------|---------------||
B||---------------------------------|----------------|---------------||
G||---------------------------------|----------------|---------------||
D||---------------------------------|-------6--------|-------5-------||
A||-5-----5-----5-----5-----5-------|-------6--------|-------5-------||
e||---7-7---7-7---7-7---7-7---7-7-7-|-------4--------|-------3-------||
      PM......      PM......       PM......      PM......
E||----------------------------|----------------------------||
B||----------------------------|----------------------------||
G||----------------------------|----------------------------||
D||----------------------------|----------------------------||
A||----------------------------|----------------------------||
e||-7--7-7-7-7-5--7--7-7-7-7-5-|-7--7-7-7-7-5--7--7-7-7-7-5-||
    PM.............................
E||---------------------------------|----------------|---------------||
B||---------------------------------|----------------|---------------||
G||---------------------------------|----------------|---------------||
D||---------------------------------|-------6--------|-------5-------||
A||-5-----5-----5-----5-----5-------|-------6--------|-------5-------||
e||---7-7---7-7---7-7---7-7---7-7-7-|-------4--------|-------3-------||

Pre-chorus
E||---------------------------------|---------------------------------||
B||---------------------------------|---------------------------------||
G||---------------------------------|---------------------------------||
D||------------7--------------------|-------------7-------------------||
A||--------5----------5-------5-----|---------5-----------------------||
e||----7------------------7---------|-----7---------------7----6---5--||

E||---------------------------------|---------------------------------||
B||---------------------------------|---------------------------------||
G||---------------------------------|---------------------------------||
D||------------6--------------------|-------------5-----------5-------||
A||--------5----------5-------------|---------5---5-------5-------5---||
e||---4-------------------5---4-----|-----3---------------------------||

E||---------------------------------|---------------------------------||
B||---------------------------------|---------------------------------||
G||---------------------------------|---------------------------------||
D||------------7--------------------|-------------7-------------------||
A||--------5----------5-------5-----|---------5-----------------------||
e||----7------------------7---------|-----7---------------7----6---5--||

E||---------------------------------|---------------------------------||
B||---------------------------------|---------------------------------||
G||---------------------------------|---------------------------------||
D||------------6--------------------|-------------5-----------5-------||
A||--------5----------5-------------|---------5---5-------5-----------||
e||---4-------------------5---4-----|-----3-----------------------0---||

E||---------------------------------|---------------------------------||
B||---------------------------------|---------------------------------||
G||------4--------------------------|---------------4-----------------||
D||------2---------------2-----2----|---------------2-----------------||
A||------2---------------2-----2----|---------------2-----------------||
e||------0---------------0-----0----|---------------0-----------------||

Chorus
E||---------------------------------|---------------------------------||
B||---------------------------------|---------------------------------||
G||-4-4-4-4-4-4-4-4-4-4-4-4-4-4-4-4-|-4-4-4-4-4-4-4-4-4-4-4-4-4-4-4-4-||
D||---------------------------------|---------------------------------||
A||-2-2-2-2-2-2-2-2-2-2-2-2-2-2-2-2-|-2-2-2-2-2-2-2-2-2-2-2-2-2-2-2-2-||
e||---------------------------------|-3-3-3-3-3-3-3-3-3-3-3-3-3-3-3-3-||

E||---------------------------------|---------------------------------||
B||---------------------------------|---------------------------------||
G||-4-4-4-4-4-4-4-4-4-4-4-4-4-4-4-4-|---------------------------------||
D||---------------------------------|---------2-----------------------||
A||-2-2-2-2-2-2-2-2-2-2-2-2-2-2-2-2-|---------2-----------------------||
e||-2-2-2-2-2-2-2-2-2-2-2-2-2-2-2-2-|---------0-----------------------||

E||---------------------------------|---------------------------------||
B||---------------------------------|---------------------------------||
G||-4-4-4-4-4-4-4-4-4-4-4-4-4-4-4-4-|-4-4-4-4-4-4-4-4-4-4-4-4-4-4-4-4-||
D||---------------------------------|---------------------------------||
A||-2-2-2-2-2-2-2-2-2-2-2-2-2-2-2-2-|-2-2-2-2-2-2-2-2-2-2-2-2-2-2-2-2-||
e||---------------------------------|-3-3-3-3-3-3-3-3-3-3-3-3-3-3-3-3-||

E||---------------------------------||
B||---------------------------------||
G||-4-4-4-4-4-4-4-4-4-4-4-4-4-4-4-4-||
D||---------------------------------||
A||-2-2-2-2-2-2-2-2-2-2-2-2-2-2-2-2-||
e||-2-2-2-2-2-2-2-2-2-2-2-2-2-2-2-2-||

E||---------------------------------|---------------------------------||
B||---------------------------------|---------------------------------||
G||---------------------------------|---------------4-----------------||
D||------2---------------X-----2----|---------------2-----------------||
A||------2---------------X-----2----|---------------2-----------------||
e||------0---------------X-----0----|---------------0-----------------||

E||----------------------------------|----------------------------------||
B||----------------------------------|----------------------------------||
G||-4-4--------------4-4-------------|-4-4--------------4-4-------------||
D||-4-4-X--X-X-X-X-X-4-4-X-X-X-X-X-X-|-4-4-X--X-X-X-X-X-4-4-X-X-X-X-X-X-||
A||-2-2-X--X-X-X-X-X-2-2-X-X-X-X-X-X-|-2-2-X--X-X-X-X-X-2-2-X-X-X-X-X-X-||
e||----------------------------------|----------------------------------||

E||----------------------------------|----------------------------------||
B||----------------------------------|----------------------------------||
G||-4-4--------------4-4-------------|-4-4--------------4-4-------------||
D||-4-4-X--X-X-X-X-X-4-4-X-X-X-X-X-X-|-4-4-X--X-X-X-X-X-4-4-X-X-X-X-X-X-||
A||-2-2-X--X-X-X-X-X-2-2-X-X-X-X-X-X-|-2-2-X--X-X-X-X-X-2-2-X-X-X-X-X-X-||
e||----------------------------------|----------------------------------||

Guitar Solo
      Guitar 1
          (1)      (1)    (1)     ~ PM... (1)       ~~~     PM......
E||---------------------------------|-----7-----------------------------||
B||-------10-------10-----10--------|-----7---10------------------------||
G||-------9^-r9p7--9^--7--9^-r9p7---|---7---7-9^-r9p7---7---------------||
D||-------------------------------9-|-----------------9----9-7----------||
A||---------------------------------|--------------------------9-7-5----||
e||---------------------------------|--------------------------------7-5||
 ||   Guitar 2                      |                                   ||
 ||                                 |                                   ||
E||---------------------------------|-----------------------------------||
B||---------------------------------|-----------------------------------||
G||----4--4-------------4--4--------|-4--4------------------------------||
D||----4--4-------------4--4--------|-4--4------------------------------||
A||----2--2-------------2--2--------|-2--2------------------------------||
e||---------------------------------|-----------------------------------||
      Guitar 1
          (1)      (1)    (1)       (1)       ~ PM...
E||---------------------------------|-----------------------------------||
B||-------10-------10---------------|-----------------------------------||
G||-------9^-r9p7--9^-----9^-r9p7---|---------9^--9p7---7---------------||
D||-------------------------------9-|---9-------------9----9-7----------||
A||---------------------------------|--------------------------9-7-5----||
e||---------------------------------|-----------------------------------||
 ||   Guitar 2                      |                                   ||
 ||                                 |                                   ||
E||---------------------------------|-----------------------------------||
B||---------------------------------|-----------------------------------||
G||----4--4-------------4--4--------|-4--4------------------------------||
D||----4--4-------------4--4--------|-4--4------------------------------||
A||----2--2-------------2--2--------|-2--2------------------------------||
e||---------------------------------|-------------------------------7\--||
      Guitar 1
           ~    _____             
E||---------------------------------|---------------------------------||
B||---------------------------------|-6-7-6---6-----------------------||
G||---7----7------------------------|-------9---7-9-5-7---------------||
D||---------------------------------|-------------------7-------------||
A||---------------------------------|---------------------------------||
e||---------------------------------|---------------------------------||
 ||   Guitar 2                      |                                 ||
 ||                                 |                                 ||
E||---------------------------------|---------------------------------||
B||---------------------------------|---------------------------------||
G||-4-4---4-2-------4-4---4-2-------|-4-4---4-2-------4-4---4-2-------||
D||-4-4---4-2-------4-4---4-2-------|-4-4---4-2-------4-4---4-2-------||
A||-2-2---2-0-------2-2---2-0-------|-2-2---2-0-------2-2---2-0-------||
e||-------------0---------------0---|-------------0---------------0---||
      Guitar 1
E||---------------------------------7h9p7----7-9-10-||
B||---------------------8-7h8-10-10-------10--------||
G||----5\4--6h7-6h7-7-9-----------------------------||
D||----5--------------------------------------------||
A||-7-----------------------------------------------||
e||-------------------------------------------------||
 ||   Guitar 2                                      ||
 ||                                                 ||
E||-------------------------------------------------||
B||-------------------------------------------------||
G||-4-4---4-2-----------4-4----4----2---------------||
D||-4-4---4-2-----------4-4----4----2---------------||
A||-2-2---2-0-----------2-2----2----0---------------||
e||---------------0--------------------------0------||
      Guitar 1
                                  ~~
E||-7h9p7-------------------------------------------||
B||-------10-8-10-8-7h8p7---------------------------||
G||-----------------------9-0---7-9----------9\4----||
D||---------------------------9---------------------||
A||-------------------------------------------------||
e||-------------------------------------------------||
 ||   Guitar 2                                      ||
 ||                                                 ||
E||-------------------------------------------------||
B||-------------------------------------------------||
G||-4---4---------4---2-----------4-4---4-2---------||
D||-4---4---------4---2-----------4-4---4-2---------||
A||-2---2---------2---0-----------2-2---2-0---------||
e||-------------------------0------------------0----||
      Guitar 1 (with wah-wah)
    (1)      (1)     (1)    (1)        (1)     (1)       ~     ~~~
E||----------------------------------|----------------------------------||
B||-7--7-7-7---------7----7----------|-7---7-7--------------------------||
G||-9^-------9^-r9p7-9^-----9^-r9p7--|-9^------9^-r9p7---7--------------||
D||-----------------9---------------9|-----------------9-------9-7-9--9-||
A||----------------------------------|----------------------------------||
e||----------------------------------|----------------------------------||
 ||   Guitar 2                       |                                  ||
 ||                                  |                                  ||
E||----------------------------------|----------------------------------||
B||----------------------------------|----------------------------------||
G||-4-4--------------4-4-------------|-4-4------------------------------||
D||-4-4-X-X--X-X-X-X-4-4-X-X--X-X-X-X|-4-4-X-X--X-X-X-X-X-X-X-X--X-X-X-X||
A||-2-2-X-X--X-X-X-X-2-2-X-X--X-X-X-X|-2-2-X-X--X-X-X-X-X-X-X-X--X-X-X-X||
e||----------------------------------|----------------------------------||
      Guitar 1
   (1)   (1)      (1)  (1)   (1)        (1) (1)   (1)   (1)  (1)  (1)~~~
E||7--7-7--------------7--7-7----------|7---7-----7---7-7-----------------||
B||10^---10^-r10p0--10-10^---10^-10p0--|10^-10^---10^---10^--10^--10^-----||
G||---------------9^-----------------10|----------------------------------||
D||------------------------------------|----------------------------------||
A||------------------------------------|----------------------------------||
e||------------------------------------|----------------------------------||
 ||   Guitar 2                         |                                  ||
 ||                                    |                                  ||
E||------------------------------------|----------------------------------||
B||------------------------------------|----------------------------------||
G||--4-4--------------4-4--------------|----------------------------------||
D||--4-4-X-X--X-X-X-X-4-4-X-X--X-X--X-X|----------------------------------||
A||--2-2-X-X--X-X-X-X-2-2-X-X--X-X--X-X|-5-----5-----5-----5-----5--------||
e||------------------------------------|---7-7---7-7---7-7---7-7---7-7-7--||
      Guitar 1
                 (1)~        ~~
E||---------------------------------|---------------------------------||
B||---------------------------------|---------------------------------||
G||---------------------------------|--7-------7--------9--9--9-------||
D||--------9-----9^-----------------|-------9-------------------------||
A||---------------------------------|---------------------------------||
e||---------------------------------|---------------------------------||
 ||   Guitar 2                      |                                 ||
 ||                                 |                                 ||
E||---------------------------------|---------------------------------||
B||---------------------------------|--3------------------------------||
G||--------4-----------------0--0---|--0------------------------------||
D||--------4-----------------0--0---|--0-----------------------4--4---||
A||--------2------------------------|--------------------------4--4---||
e||--------------------------3--3---|--3-----------------------2--2---||
      Guitar 1
    (1)    (1)      (1) (1)                                      (1)
E||---------------------------------|---------------------------------||
B||--------------7------------------|---------------------------------||
G||-9^--9--9^--7----9^--9^----------|------------------------12--14^--||
D||---------------------------9--7--|--9---9\-------------------------||
A||---------------------------------|--------\------------------------||
e||---------------------------------|---------\-----------------------||
 ||   Guitar 2                      |                                 ||
 ||                                 |                                 ||
E||---------------------------------|---------------------------------||
B||---------------------------------|---------------------------------||
G||---------------------------------|---------------------------------||
D||----4----------------------2--2--|--2------------------------------||
A||----4----------------------2--2--|--2------------------------------||
e||----2----------------------0--0--|--0------------------------------||
      Guitar 1
       ~~~         (2)         _____
E||---------------------------------|---------------------------------||
B||---------------------------------|--15^-------------------15-17----||
G||----14---------------------------|-----------16-14-16--------------||
D||---------------------------------|---------------------------------||
A||---------------------------------|---------------------------------||
e||---------------------------------|---------------------------------||
 ||   Guitar 2                      |                                 ||
 ||                                 |                                 ||
E||---------------------------------|---------------------------------||
B||---------------------------------|-----3---------------------------||
G||-----4--------------------0--0---|-----0---------------------------||
D||-----4--------------------0--0---|-----0----------------------4--4-||
A||-----2---------------------------|----------------------------4--4-||
e||--------------------------3--3---|-----3----------------------2--2-||
      Guitar 1
    (1)~       (1)            ________     (1)        ~~
E||--------------------------------------|---17^--------17------------||
B||-17^---r17-15-17^--17--17-15----------|----------------------------||
G||-----------------------------14-16-14-|----------------------------||
D||--------------------------------------|----------------------------||
A||--------------------------------------|----------------------------||
e||--------------------------------------|----------------------------||
 ||   Guitar 2                           |                            ||
 ||                                      |                            ||
E||--------------------------------------|----------------------------||
B||--------------------------------------|----------------------------||
G||--------------------------------------|----------------------------||
D||----4-------------------------2-----2-|----------------------------||
A||----4-------------------------2-----2-|----------------------------||
e||----2-------------------------0-----0-|----------------------------||

Chorus
E||---------------------------------|---------------------------------||
B||---------------------------------|---------------------------------||
G||-4-4-4-4-4-4-4-4-4-4-4-4-4-4-4-4-|-4-4-4-4-4-4-4-4-4-4-4-4-4-4-4-4-||
D||---------------------------------|---------------------------------||
A||-2-2-2-2-2-2-2-2-2-2-2-2-2-2-2-2-|-2-2-2-2-2-2-2-2-2-2-2-2-2-2-2-2-||
e||---------------------------------|-3-3-3-3-3-3-3-3-3-3-3-3-3-3-3-3-||

E||---------------------------------|---------------------------------||
B||---------------------------------|---------------------------------||
G||-4-4-4-4-4-4-4-4-4-4-4-4-4-4-4-4-|---------------------------------||
D||---------------------------------|---------2-----------------------||
A||-2-2-2-2-2-2-2-2-2-2-2-2-2-2-2-2-|---------2-----------------------||
e||-2-2-2-2-2-2-2-2-2-2-2-2-2-2-2-2-|---------0-----------------------||

E||---------------------------------|---------------------------------||
B||---------------------------------|---------------------------------||
G||-4-4-4-4-4-4-4-4-4-4-4-4-4-4-4-4-|-4-4-4-4-4-4-4-4-4-4-4-4-4-4-4-4-||
D||---------------------------------|---------------------------------||
A||-2-2-2-2-2-2-2-2-2-2-2-2-2-2-2-2-|-2-2-2-2-2-2-2-2-2-2-2-2-2-2-2-2-||
e||---------------------------------|-3-3-3-3-3-3-3-3-3-3-3-3-3-3-3-3-||

E||---------------------------------|---------------------------------||
B||---------------------------------|---------------------------------||
G||-4-4-4-4-4-4-4-4-4-4-4-4-4-4-4-4-|---------------------------------||
D||---------------------------------|---------2-----------------------||
A||-2-2-2-2-2-2-2-2-2-2-2-2-2-2-2-2-|---------2-----------------------||
e||-2-2-2-2-2-2-2-2-2-2-2-2-2-2-2-2-|---------0-----------------------||

Outro Chorus
E||---------------------------------|---------------------------------||
B||---------------------------------|---------------------------------||
G||-4-4-4-4-4-4-4-4-4-4-4-4-4-4-4-4-|---------------------------------||
D||-4-4-4-4-4-4-4-4-4-4-4-4-4-4-4-4-|-5-5-5-5-5-5-5-5-5-5-5-5-5-5-5-5-||
A||-2-2-2-2-2-2-2-2-2-2-2-2-2-2-2-2-|-5-5-5-5-5-5-5-5-5-5-5-5-5-5-5-5-||
e||---------------------------------|-3-3-3-3-3-3-3-3-3-3-3-3-3-3-3-3-||

E||---------------------------------|---------------------------------||
B||---------------------------------|---------------------------------||
G||-4-4-4-4-4-4-4-4-4-4-4-4-4-4-4-4-|-----------------------4----4----||
D||-4-4-4-4-4-4-4-4-4-4-4-4-4-4-4-4-|---------2-------------2----2----||
A||-2-2-2-2-2-2-2-2-2-2-2-2-2-2-2-2-|---------2-------------2----2----||
e||-2-2-2-2-2-2-2-2-2-2-2-2-2-2-2-2-|---------0-----------------------||

E||---------------------------------|---------------------------------||
B||---------------------------------|---------------------------------||
G||-4-4-4-4-4-4-4-4-4-4-4-4-4-4-4-4-|---------------------------------||
D||-4-4-4-4-4-4-4-4-4-4-4-4-4-4-4-4-|-5-5-5-5-5-5-5-5-5-5-5-5-5-5-5-5-||
A||-2-2-2-2-2-2-2-2-2-2-2-2-2-2-2-2-|-5-5-5-5-5-5-5-5-5-5-5-5-5-5-5-5-||
e||---------------------------------|-3-3-3-3-3-3-3-3-3-3-3-3-3-3-3-3-||

E||---------------------------------|---------------------------------||
B||---------------------------------|---------------------------------||
G||-4-4-4-4-4-4-4-4-4-4-4-4-4-4-4-4-|---------------------------------||
D||-4-4-4-4-4-4-4-4-4-4-4-4-4-4-4-4-|---------------------------------||
A||-2-2-2-2-2-2-2-2-2-2-2-2-2-2-2-2-|---------------------------------||
e||-2-2-2-2-2-2-2-2-2-2-2-2-2-2-2-2-|-0-0-0-0-0-0-0-0-0-0-0-0-0-0-0-0-||

E||---------------------------------||
B||---------------------------------||
G||-4-4-4-4-4-4-4-4-4-4-4-4-4-4-4-4-||
D||-2-2-2-2-2-2-2-2-2-2-2-2-2-2-2-2-||
A||---------------------------------||
e||---------------------------------||

E||---------------------------------|---------------------------------||
B||---------------------------------|---------------------------------||
G||---------------------------------|---------------------------------||
D||------------7--------------------|-------------7-------------------||
A||--------5----------5-------5-----|---------5-----------5-------5---||
e||----7------------------7---------|-----7-------------------7-------||

E||---------------------------------|---------------------------------||
B||---------------------------------|---------------------------------||
G||---------------------------------|---------------------------------||
D||------------7--------------------|-------------7-------------------||
A||--------5----------5-------5-----|---------5-----------5-------5---||
e||----7------------------7---------|-----7-------------------7-------||

E||---------------------------------|---------------------------------||
B||---------------------------------|---------------------------------||
G||---------------------------------|---------------------------------||
D||------------7--------------------|-------------7-------------------||
A||--------5----------5-------5-----|---------5-----------5-------5---||
e||----7------------------7---------|-----7-------------------7-------||

E||---------------------------------|--------------|--------------||
B||---------------------------------|--------------|--------------||
G||---------------------------------|--------------|--------------||
D||------------7--------------------|------2-------|--------------||
A||--------5----------5-------5-----|------2-------|--------------||
e||----7------------------7---------|------0-------|--------------||

E||---------------------------------|---------------------------------||
B||---------------------------------|---------------------------------||
G||-4-4---4-2-------4-4---4-2-------|-4-4---4-2-------4-4---4-2-------||
D||-4-4---4-2-------4-4---4-2-------|-4-4---4-2-------4-4---4-2-------||
A||-2-2---2-0-------2-2---2-0-------|-2-2---2-0-------2-2---2-0-------||
e||-------------0---------------0---|-------------0---------------0---||

E||---------------------------------|---------------------------------||
B||---------------------------------|---------------------------------||
G||-4-4---4-2-------4-4---4-2-------|-4-4---4-2-------4-4---4-2-------||
D||-4-4---4-2-------4-4---4-2-------|-4-4---4-2-------4-4---4-2-------||
A||-2-2---2-0-------2-2---2-0-------|-2-2---2-0-------2-2---2-0-------||
e||-------------0---------------0---|-------------0---------------0---||

E||---------------------------------|---------------------------------||
B||---------------------------------|---------------------------------||
G||-4-4---4-2-------4-4---4-2-------|-4-4---4-2-------4-4---4-2-------||
D||-4-4---4-2-------4-4---4-2-------|-4-4---4-2-------4-4---4-2-------||
A||-2-2---2-0-------2-2---2-0-------|-2-2---2-0-------2-2---2-0-------||
e||-------------0---------------0---|-------------0---------------0---||

E||---------------------------------|---------------------------------||
B||---------------------------------|---------------------------------||
G||-4-4---4-2-------4-4---4-2-------|--4-----4---------4------4\------||
D||-4-4---4-2-------4-4---4-2-------|--4-----4---------4------4\------||
A||-2-2---2-0-------2-2---2-0-------|--2-----2---------2------2\------||
e||-------------0---------------0---|---------------------------------||

Ещё песни с аккордами исполнителя/группы «Anthrax»