Startin' Up A Posse
Anthrax
AnthraxStartin' Up A Posse Прислать видеоурок
Anthrax Startin' Up A Posse
Добавлено: — , Просмотров: 349 (+0)

 
Добавить в избранное

"Attack Of The Killer B's"
Startin' Up A Posse

verse:        |-----------------|
|---------1---1---|
|---------0---0---|
|---------2---2---|
|---0-2-3-------3-|
|-3---------3-----| keep repeating

|----------15-|
|-13-15/17----|
|-------------|
|-------------|
|-------------|
|-------------| play this over and over in the background

"Now I'm gonna tell ya a story
A tale of wrong and right
And freedom is the reason
You can't take it without a fight

So now I'm startin' up a posse
  (suck my dick, suck my dick)
To come and look for you
We're gonna put a stop
To what you want to do"

prechorus:    |---------1-------------------------|
|---------0-----------------1---1---|
|---------0-----------------0---0---|
|---------0-----------------2---2---|
|-3-2-0---------------0-2-3-------3-|
|-------3-----------3---------3-----|
"You fuckin' whores
  (you fuckin' whores)
That's all you are"
play verse guitar part
"You say our records are offensive
  (you're a douche, you're a douche)
Our messages ain't right
You say 'we're gonna label records
so our kids can grow up right'"
play 3/4 of the pre chorus
"You fuckin' whores
  (let them decide)
That's all you are"

chorus:
"Shit, fuck, satan, death, sex, drugs, rape
 These seven words you're trying to take
|----------------------------------------------------
|----------------------------------------------------
|----------------------------------------------------
|-10----8-8-8/10-10----8-8-8/10-10----8-8-8/10-10----
|-10----8-8-8/10-10----8-8-8/10-10----8-8-8/10-10----
|-8-----6-6-6/8--8-----6-6-6/8--8-----6-6-6/8--8-----
 Shit, fuck, satan, death, sex, drugs, rape
-------------------------------
-------------------------------
-8-8-8/10-10----8-8-8/10-10----
-8-8-8/10-10----8-8-8/10-10----
-6-6-6/8--8-----6-6-6/8--8-----
-------------------------------
Right or wrong, it's our choice to make
-------------------------------
-------------------------------
-------------------------------
-8-8-8/10-10----8-8-8/10-10----
-8-8-8/10-10----8-8-8/10-10----
-6-6-6/8--8-----6-6-6/8--8-----
America the beautiful, land of the free
-------------------------------------
-------------------------------------
-10-10-10/12-12----12-12-12\10-10----
-10-10-10/12-12----12-12-12\10-10----
-8--8--8-/10-10----10-10-10\8--8-----
-------------------------------------

Don't change the words to land of hypocrisy"
-------------------------------|
-------------------------------|
-10-10-10----------------------|
-10-10-10-10-10----8-8-8/10-10-|
-8--8--8--10-10----8-8-8/10-10-|
----------8--8-----6-6-6/8--8--|

solo (Scott Ian):
|--------------------------------|
|-------13-15'-15'-15'`-13-15-13-|
|-12-14--------------------------|
|--------------------------------|
|--------------------------------|
|--------------------------------| } repeat 4x

2nd verse, prechorus, verse, prechorus, chorus
(uses the same guitar parts):
"Well, I'm startin' up a posse
  (fascist scum, fascist scum)
And we'll damn sure make you see
Something that offends you
May not be offensive to me
You fuckin' whores
  (you fuckin' whores)
That's all you are
Now you might take offense
To a word like 'fuck' or 'shit'
  (dick!)
But you fuckin' don't have the right
  (cunt!)
To discriminate me for saying it!
You fuckin' whores
  (you fuckin' whores)
That's all you are
Shit, fuck, satan, death, sex, drugs, rape
These seven words you're tryin' to take
Shit, fuck, satan, death, sex, drugs, rape
Right or wrong, it's our choice to make
America the beautiful, land of the free
Don't change the words to land of hypocrisy"

interlude:
|----------------------------------------------------|
|----------------------------------------------------|
|----------------------------------------------------|
|----------------------------------------------------|
|------------------8-12----------------------------8-|
|-8888888888888888------8888888888888888-8-8-10-12---| } repeat 2x
  ^
  I'm not too sure about how many times that note is played...
  (btw, that's the 8th fret... although, that's kinda obvious)

|-------------------------------------------------|
|-------------------------------------------------|
|-------------------------------------------------|
|---------------------2---------------------------|
|-------------------3-----------------------0-2-3-|
|-3333333333333333------333333333333333-3-3-------| } repeat 2x

3rd verse, prechorus, verse, prechorus, chorus
(again, the same parts):
"So now I'm startin' up a posse
  (motherfucker, motherfuck)
To fight for freedom of choice
To fight for freedom of speech
We're gonna make you hear our voice"

|-------------------------15-|
|-------------12-13-15/17----|
|-12-12----14----------------|
|----------------------------|
|----------------------------|
|----------------------------|
"And now, I don't do this to shock you
  (that's the end, that's the end)
I don't do this for spite
You've got the choice, don't buy it, don't read it,
And don't say your opinion's right
You fuckin' whores
  (you fuckin' whores)
That's all you are
  (cunty, cunty, cunty, cunt)
You know you can't censor my feelings
You can't censor my thoughts
Censorship's against
everything America stands for
You fuckin' whores
  (let us decide)
That's all you are
  (and this ain't sexist either)
Shit, fuck, satan, death, sex, drugs, rape
These seven words you're trying to take
Shit, fuck, satan, death, sex, drugs rape
Right or wrong, it's our choice to make
America the beautiful, land of the free
Don't change the words to land of hypocrisy"

play the first half of the interlude and repeat the last 1/4 of that
part 4 times... then end on an F ...

Ещё песни с аккордами исполнителя/группы «Anthrax»