Unloved
Arden Jann
Arden JannUnloved Прислать видеоурок
Arden Jann Unloved
Добавлено: — , Просмотров: 249 (+1)

 
Добавить в избранное

"Living Under June"
Unloved

this is my own work, no one else's, but it's also my interpretation of
how someone else's song goes

Capo 4th fret

Intro:          A             A/G#          F#m               E 
------5---0-------------2-0-----------2-----------------
------------------------------------2---2---------------
--2-----------------2-------------2-------2---------1---
----2-------------2---2---------4-----------4-----2---2-
--0-----0---0-------------------------------------------
----------------4-------------2-----------------0-------
(divisi)= "Two separate parts written together as one"
--4-2-0-------------------------
--5-3-2---------------------5---
--------3-2-0---------4-6-7-----
--------4-2-1---4-6-7-------2---
----------------------2-4-5-----
----------------2-4-5-----------

Verse
(all chords played with same finger-picking style as the intro)
           A 
There will be...
A/G# 
This time...
F#m 
No baptism,...
    E 
And no sweet...
        A 
All the stars...
A/F# 
(And) Everything...
F#m 
Satellites...
    E 
The moon...

Chorus Tab
  A       E/G#    F#m     E 
----------------------------------
----------------------------------
------2-------1-------2-------1---
----2---2---2---2---2---2---2---2-
--0-------------------------------
----------4-------2-------0-------
A        E/G#   F#m  E 
    Un___love________D
      A    E/G#    F#m   E 
A        E/G#   F#m    E 
     A     E/G#    F#m   E  (hold for four counts)
       A
Here I am.....
A/F# 
F#m 
   E 
       A 
Here I am....
A/G# 
F#m 
            E 
A        E/G#   F#m  E 
    Un___love________D
      A    E/G#    F#m   E 
A        E/G#   F#m    E 
     A     E/G#    F#m   E  (hold for four counts)
       A 
Here I am.....
A/G# 
     F#m 
I am 1962....
E 
       A 
People crying.....
          A/G# 
       F#m 
      E 
And I don't know where.....
A    E/G#   F#m  E 
Un___love________D
      A    E/G#    F#m   E 
Un____love______D
A    E/G#   F#m    E 
Un___la__aaaaved
     A     E/G#    F#m   E  (hold for four counts)
Un____love________D
D 
     A 
C 
     B 
Will ever....
A        E/G#   F#m  E 
      A    E/G#    F#m   E 
A        E/G#   F#m    E 
     A     E/G#    F#m   E 
     A     E/G#    F#m   E  (hold for 4 counts)
A  A/G#  F#m E  A  A/G#  (Begin finish here) F#m E  A 

Finish:        --------------------
--2-3-2-------------
--------2-----------
----------2---4-----
----------------0---
--------------------

Ещё песни с аккордами исполнителя/группы «Arden Jann»