Aller Plus Haut
Arena Tina
Arena TinaAller Plus Haut Прислать видеоурок
Arena Tina Aller Plus Haut
Добавлено: — , Просмотров: 222 (+0)

 
Добавить в избранное

Aller Plus Haut

INTRO
C  - Dm 
(Dm  chord during the acoustic lead)
   acoustic lead
e-|-------------------------------------------------|
B-|-------------------------------------------------|
G-|-7---7-9-10---9-10/12---10---9---7---5---3---2---|
D-|-------------------------------------------------|
A-|-------------------------------------------------|
E-|-------------------------------------------------|
VERSE
Dm A# C A 
Dm A# C A 
Dm A# C A 
CHORUS
Dm A# F C 
Dm A# F C A 
   acoustic lead (A  chord during this)
e-|-------------------------------------------|
B-|-------------------------------------------|
G-|-12-10/12---10-9/10---9-7/9---9/10---(9)---|
D-|-------------------------------------------|
A-|-------------------------------------------|
E-|-------------------------------------------|
VERSE
CHORUS
BRIDGE (SOLO)
        A#          G             F                     A 
e-|---------------------------------------------------------------------|
B-|----------------------------------------------------------10---------|
G-|-7-9/10---7-9-10/12---10---12-/14---10-12/14---10-12/14------12-10-9-|
D-|---------------------------------------------------------------------|
A-|---------------------------------------------------------------------|
E-|---------------------------------------------------------------------|
    A#          G             F                     A 
e-|--------------------------------------------------------------------|
B-|--------------------------------------------------------------------|
G-|-10---7-9-10/12---10---12-/14---10-12/14---10-12/14---10-12-12/14---|
D-|--------------------------------------------------------------------|
A-|--------------------------------------------------------------------|
E-|--------------------------------------------------------------------|
CHORUS (repeat chords ad.lib)