Love And Affection
Armatrading Joan
Armatrading JoanLove And Affection Прислать видеоурок
Armatrading Joan Love And Affection
Добавлено: — , Просмотров: 250 (+1)

 
Добавить в избранное

Love And Affection

   C#m                    B                   F#m   A 
e--------------------------------7--------------------------
B-------4h5p4--------4-----------7--------------2-----5-----
G------6-----------6------------8---------------2-----6-----
D----6------------------------9----------------4-----7------
A--4------------------------9-----------------4-----7-------
E-------------------------7------------------2-----5--------
            I am not in love
                           C#m 
e-----------------------------------------------------------
B----------------------------5------------------------------
G---------------------------6-------------------------------
D--------------------------6--------------------------------
A-------------------------4---------------------------------
E-----------------------------------------------------------
       but I'm open to persuasion
  e A                      A/G#                  F#m 
e--------5-------5--------------5-------5-------------2----
B-----------5-------5--------------5-------5----------2----
G--------------6----------------------6-------------2------
D-----7--7-------7----------7---7-------7----------4-------
A----7---------------------7----------------------4--------
E-0-5---------------------4----------------------2---------
        east or west,         where's the best
       C#m               A                A/G# 
e---------------------------5-------5---------5-----5-------
B------------------------------5-------5--------5------5----
G---------6-----------------------6---------------6---------
D--------6----------------7-7-------7-------7-7-----7-------
A-------4---------4------7-----------------7----------------
E---------------7---7---5-----------------4-----------------
  for romancing            with a friend     I can smile
F#m                                  A 
   but with a lover I could hold my head back and really laugh
            E           B  (stop)    A 
e-----------------------------------------------------------
B-----------0-----------/7----------5-----------------------
G-----------1-----------/8----------6-----------------------
D-----------2-----------/9----------7-----------------------
A-----------2-----------/9----------7-----------------------
E-----------0-----------/7----------5-----------------------
really laugh
            C#m            B 
e-------------------------------------------
B--------------5--------------7-------------
G-------------6---------------8-------------
D------------6---------------9--------------
A-----------4-----4h6/7\6---9---------------
E----------------(pinky)---7----------------
 thank you                      you took me
   A                A/G#              F#m 
e-----5-------5---------5-----5----------------------
B--------5-------5--------5------5---------2---------
G-----------6---------------6--------------2---------
D---7-7-------7-------7-7-----7----------4-----------
A--7-----------------7------------------4------------
E-5-----------------4-----------------2--------------
 dancing            cross the floor cheek to cheek
A 
  but with a lover I could really
        E              B     A                     B 
e-----------------------------------------------------------
B-------0--------------/7----5---------------------/7-------
G-------1--------------/8----6---------------------/8-------
D-------2--------------/9----7---------------------/9-------
A-------2--------------/9----7---------------------/9-------
E-------0--------------/7----5---------------------/7-------
      move rly move                       I could really
      dance  rly dance rly dance rly dance I could really
      move   rly move   rly move   rly move
       (B)     C#m        B         A           A/G#          F#m 
now if I can feeeel the sun in my eyes and the rain on my face
             C#m  B 
why can't I feeeeeel....
  E                G#m    A                   B 
e-----------------------------------------------------------
B--0----------------/4-----5------------------/7------------
G--1----------------/4-----6------------------/8------------
D--2----------------/6-----7------------------/9------------
A--2----------------/6-----7------------------/9------------
E--0----------------/4-----5------------------/7------------
  love                                 I could really
  love, really love,      really love, really love,really love
  love love love love love     love love love  now I got
  aaaall                   the friends that I want
  love  ooh hoo                             I may
  need more                   but I shall just stick to
  those I have got
A                               A/G# 
 with friends I still feel so insecure
F#m                                  E 
 little darling I believe you could help me a lot
A                               A/G# 
 just take my hand and lead me where you will
F#m                     B 
  no conversation   no wave goodnight
E                        G#m    A                              B 
just make love                                    with affection
sing me another love song but this time with a little dedication  sing it
sing it (sing it sing it)               you know that's what I like
love     whoo hoo                        once more with feeling
C#m                      B          A     E 
give me love    give me love       loooove

(saxaphone solo arranged for guitar):
   E            B          A                      E 
e--12----------------------14-14--12-12-----------12-------
B----------14---12-----------------------14-12-14----------
G----------------------------------------------------------
D----------------------------------------------------------
A----------------------------------------------------------
E----------------------------------------------------------
         C#m                               B 
e-----12----------------------------------------------------
B--12----14-----12-12---------------------------------------
G---------------------13-13---13-11--------11--11-----------
D-----------------------------------14-------14-------------
A-----------------------------------------------------------
E-----------------------------------------------------------
      C                     B            A              E 
e-(5)/15------12--------------------------------------------
B-----------------15--12----12--12-------12-----12----------
G-----------------------------14------------------14-12-----
D-----------------------------------------------------------
A-----------------------------------------------------------
E-----------------------------------------------------------
                                                      well baby
E                        G#m    A                             B 
just make love                                    with affection
sing me another love song but this time with a little dedication  sing it
sing it (sing it sing it)               you know that's what  I like
love     whoo hoo                        once more with feeling
sing me another love song but this time with a little dedication  sing it
sing it (sing it sing it)               you know that's what  I like
love     whoo hoo                        with affection
         whoo hoo                        with a little dedication
love     whoo hoo                        once more with feeling
love     whoo hoo                        you know that's what  I like
love     whoo hoo
         whoo hoooooooooo

outro:        B---||:--0--h3--h5---p3---\2-----p0--:||

/ is slide up
\ is slide down
h is a hammer on
p is a pull off

EADGBe
022100 - E 
244222 - F#m 
466444 - G#m 
577655 - A 
477655 - A/G# 
799877 - B 
x46654 - C#m 
8 10 10 9 8 8 - C  (tricky little discordant C  major in the solo)

Ещё песни с аккордами исполнителя/группы «Armatrading Joan»