Fahrenheit
At The Drive-in
At The Drive-inFahrenheit Прислать видеоурок
At The Drive-in Fahrenheit
Добавлено: — , Просмотров: 285 (+0)

  Добавить в избранное

Fahrenheit

Riff:        e:-----------------------|
b:-----------------------|
g:--9-9-9-9-9-9-9-9-9----|
d:-----------------------|
a:--7-7-7-7-7-7-7-7-7----|
E:-----------------------|

intro + verse:    e:-----------------------------------|
b:-----------------------------------|
g:--9-9-x--9-9-9---12--12------------|
d:--9-9-x--9-9-9---12--12--121212-12-|
a:--7-7-x--x-x-x---10--10--101010-10-|
E:--0-0-x--7-7-7---------------------|

chorus:        e:-----------------------------------------|
b:-----------------------------------------|
g:--9-9-9--7/9-9-9-9-----------------------|
d:---------------------12--------10--------|
a:--7-7-7--5/7-7-7-7---12-strum--10-strum--|
E:---------------------10--------8---------|

the middle bit:    a:--------12------10------7------5---5h7----|
E:---0-0-----0-0------0-0---0-0----0--------|

a:--------12---9-----------9-------9---|
E:---8-8-----8---8---10-10---10-10-----|

e:------------------12---|
b:-----------------------|
g:---9-------------------|
d:---8-------------------|
a:---7-strum-------------|
E:---0----------10-------|

Ещё песни с аккордами исполнителя/группы «At The Drive-in»