Pattern Against User
At The Drive-in
At The Drive-inPattern Against User Прислать видеоурок
At The Drive-in Pattern Against User
Добавлено: — , Просмотров: 268 (+0)

  Добавить в избранное

Pattern Against User

RIFF 1
Guitar 1:
e---7--------------------
b-----10--7--7-7-8-7-----
g-7------------------9-7-
RIFF 2
Guitar 1:
e----12----------
b-15----13-12----
g-------------14-
RIFF 3
Guitar 1:
e-------------------------------------------------------
b-5---5---7-5-------------------------------------------
g---6---6----------( improvise on this)-----------------
D-------------7-----------------------------------------
Guitar 2:
e-----------------------------------------------
b-5-5-7-5-----5-5-7-5---------7-5---------------
g---------6-----------6-----------------6-------
D-----------------------7-----------------7-----
Intro: RIFF 1 } x 2
Verse 1: RIFF 2 } x 8
Chorus: RIFF 1 } x 4
Verse 2: RIFF 2 } x 8
Chorus: Same
Guitar 1:
e-12----
b----12-
Bridge: RIFF 3 } x 6

Ещё песни с аккордами исполнителя/группы «At The Drive-in»