Sleepwalk Capsules
At The Drive-in
At The Drive-inSleepwalk Capsules Прислать видеоурок
At The Drive-in Sleepwalk Capsules
Добавлено: — , Просмотров: 281 (+0)

 
Добавить в избранное

Sleepwalk Capsules

E-15-15---15-15-15---15----------------------------------------------------
B-15-15---15-15-15---15-14-14-14-14-14-12-12-12-12-14-14-14-14-14-15-15-15-
G-0--0----0--0--0----0--14-14-14-14-14-14-14-14-14-14-14-14-14-14-14-14-14-
D-14-14---14-0--0----0-----------------------------------------------------
A-15-15---15-14-14---14----------------------------------------------------
E------------15-15---15----------------------------------------------------
Guitar 2
Verse 1 & 2
  Cadd9 Gadd9 
        S
E-3-3--3/10-10-
B-0-0--0/10-10-
G-0-0--0/0--0--
D-2-2--2/9--9--
A-3-3--3/10-10-
E--------------
Chorus
Guitar 1
                        C 
E------2-2---------3-------------------
B----------3---------5-----------------
G---4------------5------5-5-5-5-5-5-5-5
D-2------------5--------5-5-5-5-5-5-5-5
A------------3----------3-3-3-3-3-3-3-3
E-----------------------3-3-3-3-3-3-3-3
Guitar 2
  Em  Asus4   C 
E-----------------
B-------------5---
G-0-----6-----5---
D-2-----6-----5---
A-2-----5-----3---
E-0-----5-----3---

Ещё песни с аккордами исполнителя/группы «At The Drive-in»