La Madrugada
Atkins Chet
Atkins ChetLa Madrugada Прислать видеоурок
Atkins Chet La Madrugada
Добавлено: — , Просмотров: 364 (+0)

  Добавить в избранное

La Madrugada

this is part of a 'relatively easy' piece played recorded by Chet
Atkins, called "La Madrugada" or "The Early Morning Dawn". This is the
first movement, and tell me if you like it enough to post the other
three movements. (I don't have any tab software so it'll come slow and
one at a time unless someone can tell me step-by-step how to get and
install it)

timing is 4/4 in C major
hint:  ALL NOTES ARE 1/8 notes - in this section without exception
La Madrugada, by JR Hubbard, as recorded by C Atkins

(1)
        E--3-------------3--|--3---------1-0---|--------0---------|
B--1-------------1--|--0---------0-0-3-|--3-----3-1-------|
G--0-0-0-0-0-0-0-0--|--0-0-0-0-0-0-0-0-|--0-0-0-0-0-0-0-0-|
D-------------------|------------------|------------------|
A--3-------------3--|--2---------2-2---|--1-----1-1-------|

(2)
        E----------0---3----|--3-------------3-|--3-----1-0-----3--|
B--1---1---1---1----|--1-------------1-|--0-----0-0-----0--|
G--0-0-0-0-0-0-0-0--|--0-0-0-0-0-0-0-0-|--0-0-0-0-0-0-0-0--|
D------3---3--------|------------------|-------------------|
A--0-----------0----|------------------|-------------------|
E-------------------|--3-------------1-|--0-----0-0--------|

(3)
        E--8-------7--------|--5-------7--------|
B--6-------6--------|--6-------6--------| REPEAT UNTIL END OF
G--0-0-0-0-0-0-0-0--|--0-0-0-0-0-0------| BAR 1 OF ROW 2
D--0-------0--------|--0-------0-----0--|
A-------------------|--------------8----|

Ещё песни с аккордами исполнителя/группы «Atkins Chet»