La Madrugada
Atkins Chet
Atkins Chet La Madrugada
Добавлено: — , Просмотров: 400 (+41)

  Добавить в избранное

ok the last bar to be played after it's second repeat is: (then follows
the next sets of bars)
(h) = half note
(q) = quart. note
all other notes are 1/8 notes
(first bar of row2)
E---------0---3---|-3-------3-----0-|-1---0-----------|-----------------|
B-1---1---1---1---|-1-------0-----0-|-1---1---1-----1-|-1-------1-----1-|
G-0-0-0-0-0-0-0-0-|-0-0-0-0-0-0-0-0-|-0-0-0-0-0-0-0-0-|-0-0-0-0-0-0-0-0-|
D-----3---3-------|-----------------|-----3---0-----3-|-2-------3-----3-|
A-0-----------0---|-3-------2-----2-|-0---------------|-3-------3-----3-|
E-----------------|-----------------|---------3-----3-|-----------------|

E-----------------|-----0-------0---|-----0-------0---|----0----0---0---|
B-1(h)---5(q)-8(q)|-6----6--6----6--|-0----6--6----6--|-8---8--------8--|
G-0(h)------------|--3----3--5----5-|--5----5--4----4-|--7---7--------7-|
D-2(h)------------|---0-------0-----|---0-------0-----|---5---0---------|
A-3(h)------------|-----------------|-----------------|-----------7-----|
E-----------------|-6-------5-------|-3-------3-------|-8---------------|

E-----0----0---0---|-----0------0---|-----0------0---|----0-----0---0---|
B-8----8--------8--|-6----6--6---6--|-0----6--6---6--|-8---8---------8--|
G--7----7--------7-|--3----3--5---5-|--5----5--4---4-|--7---7---------7-|
D---5----0---------|---0-------0----|---0-------0----|---5---0----------|
A------------7-----|----------------|----------------|------------7-----|
E-8----------------|-6-------5------|-3-------3------|-8----------------|
ok, that's enough for now. that took me almost an hour to do. watch out
for part III

Ещё песни с аккордами исполнителя/группы «Atkins Chet»

 
Последние добавленные подборы