El Despertar
Avalanch
AvalanchEl Despertar Прислать видеоурок
Avalanch El Despertar
Добавлено: — , Просмотров: 210 (+0)

 
Добавить в избранное

La llama eterna (1997)
El Despertar

Introducciyn de piano para guitarra:
                                                                            x2
e|---------------------------------------------------------------------------|
B|---------------------------------------------------------------------------|
G|------9--------------------------7-----------9-----------------------------|
D|----9---9----------10----------7---7-------9---9---------------------------|
A|--7-------------10----10-----5-----------7---------------------------------|
E|--------------8------------------------------------------------------------|
    E           C              D           E 
Distorsiyn (00:15):
                                                                            x2
e|---------------------------------------------------------------------------|
B|---------------------------------------------------------------------------|
G|---9--------7---9---------------9--------7---------------------------------|
D|---9---10---7---9---------------9---10---7---7-----------------------------|
A|---7---10---5---7---7h9h10------7---10---5---7-----------------------------|
E|--------8----------------------------8-------5-----------------------------|
     E      C   D   E               E    C   D   A 
Solo 1 (00:34) (x2):
e|---------------------------------------------------------------------------|
B|---15-17-18--18/20--18-17-15--15-17-15--13^--------------------------------|
G|---------------------------------------------------------------------------|
D|---------------------------------------------------------------------------|
A|---------------------------------------------------------------------------|
E|---------------------------------------------------------------------------|

e|---------------------------------------------------------------------------|
B|---15-17-18--18/20--18-17-15--15-17-18--18/21^-----------------------------|
G|---------------------------------------------------------------------------|
D|---------------------------------------------------------------------------|
A|---------------------------------------------------------------------------|
E|---------------------------------------------------------------------------|

Solo 2 (00:52):
e|---------------------------------------------------------------------------|
B|---21^^--22^^--22-21-19--21^^--22-22/24^-24-22--22-21-19--21^^-------------|
G|---------------------------------------------------------------------------|
D|---------------------------------------------------------------------------|
A|---------------------------------------------------------------------------|
E|---------------------------------------------------------------------------|

e|---------------------------------------------------------------------------|
B|---21^^--22^^--22-22/24^^-22-21-22^^--19-21-22-21-19-----------------------|
G|------------------------------------------------------21^--19^^------------|
D|---------------------------------------------------------------------------|
A|---------------------------------------------------------------------------|
E|---------------------------------------------------------------------------|

Ritmo para el Solo 2:
e|---------------------------------------------------------------------------|
B|---------------------------------------------------------------------------|
G|---9----10-----10--9--7--9-----10-10/12--12--10----10--9--7--9-------------|
D|---9----10-----10--9--7--9-----10-10/12--12--10----10--9--7--9-------------|
A|---7-----8------8--7--5--7------8--8/10--10---8-----8 -7--5--7-------------|
E|---------------------------------------------------------------------------|
     E     F      F  E  D  E      F  F  G   G   F     F  E  D  E

Ещё песни с аккордами исполнителя/группы «Avalanch»