Vicio letal
Avalanch
AvalanchVicio letal Прислать видеоурок
Avalanch Vicio letal
Добавлено: — , Просмотров: 246 (+1)

 
Добавить в избранное

La llama eterna (1997)
Vicio letal

Verso:                    x3                     x3
e|------------|---------------|------------|----------------|----------------|
B|------------|---------------|------------|----------------|----------------|
G|------------|---------------|------------|----------------|-------5--------|
D|--------9---|------------7--|--------7---|--------7h9h10--|---7---5---5----|
A|---7777-----|--7--9--10-----|---5555-----|--5h7h8---------|---7---3---5----|
E|------------|---------------|------------|----------------|---5-------3----|
     ····              ····                 A   C   G 
     Olvidarte de ....

Estribillo:               x2
e|---------------|-----------------------------------------------------------|
B|---------------|-----------------------------------------------------------|
G|-------5-------|---9---7---------------------------------------------------|
D|---7---5---5---|---9---7---5---7-------------------------------------------|
A|---7---3---5---|---7---5---5---7-------------------------------------------|
E|---5-------3---|-----------3---5-------------------------------------------|
     A   C   G       E   D   G   A 
     Ella es mortal, ...

Verso

Ещё песни с аккордами исполнителя/группы «Avalanch»