Forgotten
Avril Lavigne
Avril LavigneForgotten Прислать видеоурок
Avril Lavigne Forgotten
Добавлено: — , Просмотров: 257 (+0)

 
Добавить в избранное

Under my Skin
Forgotten

Tuning standart: E B G D A E

Intro (piano arranged to guitar):
   C        D# D    G 
E----------------------|
B----------------------|
G-----5----------------|
D----------------------|
A--3-----3---6-5-------|
E-------------------3--|

Verse:
(Piano)
 Ah   ahhhh ......
   C  D# D  G 
E--------------|
B--------------|
G--5--8--7-----|
D--5--8--7--5--|
A--3--6--5--5--|
E-----------3--|

Guitar (light distortion) the same:
 Becouse ......
   C  D# D  G 
E--------------|
B--------------|
G--5--8--7-----|
D--5--8--7--5--|
A--3--6--5--5--|
E-----------3--|

Chorus:
Guitar (heavy distortion):
 Have you forgotten .......
   C       D#      G#       F 
E-----------------------------------|
B-----------------------------------|
G--5-5-5-5-8-8-8-8------------------|
D--5-5-5-5-8-8-8-8-6-6-6-6-3-3-3-3--|
A--3-3-3-3-6-6-6-6-6-6-6-6-3-3-3-3--|
E------------------4-4-4-4-1-1-1-1--|
Play 3 times and then only
 Yeaahhh ......
   C 
E----------|
B----------|
G--5~~~----|
D--5~~~----|
A--3~~~----|
E----------|

Repeat Verse and Chorus

Break:
I know I wanna run away
  C       D#      D       F 
E----------------------------------|
B----------------------------------|
G-5---5-5-8---8-8-7---7-7----------|
D-5---5-5-8---8-8-7---7-7-3---3-3--|
A-3---3-3-6---6-6-5---5-5-3---3-3--|
E-------------------------1---1-1--|
Repeat 3 times and then
I was forgotten ......
 C       D#       G#       F 
E-----------------------------------|
B-----------------------------------|
G-5---5-5-8---8-8-------------------|
D-5---5-5-8---8-8-6---6-6--3---3-3--|
A-3---3-3-6---6-6-6---6-6--3---3-3--|
E-----------------4---4-4--1---1-1--|

Than repeat chorus many times.

That's All

Ещё песни с аккордами исполнителя/группы «Avril Lavigne»