Freak out
Avril Lavigne
Avril LavigneFreak out Прислать видеоурок
Avril Lavigne Freak out
Добавлено: — , Просмотров: 308 (+0)

 
Добавить в избранное

Under my Skin
Freak out

Tuning: Down To 1/2 Step (D# A# F# C# G# D# )

Intro:
Gtr.1 w/distortion
  D#5              F5               G#5              G#5   G5 F5 
----------------|----------------|----------------|----------------|
----------------|----------------|----------------|----------------|
----------------|----------------|----------------|----------------|
--2--2----------|--4--4----------|--7--7----------|--7--7--6--4----|
--2--2----------|--4--4----------|--7--7----------|--7--7--6--4----|
--0--0----------|--2--2----------|--5--5----------|--5--5--4--2----|
                                                                   |
Gtr.2 w/distortion                                                 |
----------------|----------------|----------------|----------------|
----------------|----------------|----------------|----------------|
-------9/11p9---|-------9/11p9---|-------9/11p9---|-----11/13p11/9-|
----------------|----------------|----------------|----------------|
----------------|----------------|----------------|----------------|
----------------|----------------|----------------|----------------|

Gtr.1 w/distortion
  D#5              F5               G#5              G#5   G5 F5 
----------------|----------------|----------------|----------------|
----------------|----------------|----------------|----------------|
----------------|----------------|----------------|----------------|
--2--2----------|--4--4----------|--7--7----------|--7--7--6--4----|
--2--2----------|--4--4----------|--7--7----------|--7--7--6--4----|
--0--0----------|--2--2----------|--5--5----------|--5--5--4--2----|
                                                                   |
Gtr.2 w/distortion                                                 |
----------------|----------------|----------------|----------------|
----------------|----------------|----------------|----------------|
-------13/14p13-|-------9/11p9---|-------9/11p9---|-----11/13p11/9-|
----------------|----------------|----------------|----------------|
----------------|----------------|----------------|----------------|
----------------|----------------|----------------|----------------|

Verse:
Gtr.1
  D#5              F5               G#5             G#5     G5 F5 
----------------|----------------|----------------|----------------|
----------------|----------------|----------------|----------------|
----------------|----------------|----------------|----------------| \ REPEAT
----------------|----------------|----------------|----------------| /   4X
----------------|----------------|----------------|----------------|
--0--0-------0--|--2--2-------2--|--5--5-------5--|--5-5-5--4-4-2--|
P.M...............................................................

Pre-Chorus:
Both Gtrs.
  F5               G G#5 
----------------|----------------|
----------------|----------------|
----------------|----------------|
--4--4-4-4-4-4--|--6--7----------|
--4--4-4-4-4-4--|--6--7----------|
--2--2-2-2-2-2--|--4--5----------|

Chorus:
Gtr1. w/distortion
  D#5              A#5              C5   D#5         G#5     G5 F5 
----------------|----------------|----------------|----------------|
----------------|----------------|----------------|----------------|
----------------|--4--4-4-4-4-4--|--6--6----------|----------------|
--2--2-2-2-2-2--|--4--4-4-4-4-4--|--6--6-2-2-2-2--|--7--7-7-7-6-4--|
--2--2-2-2-2-2--|--2--2-2-2-2-2--|--4--4-2-2-2-2--|--7--7-7-7-6-4--|
--0--0-0-0-0-0--|----------------|-------0-0-0-0--|--5--5-5-5-4-2--|
                                                                   |
Gtr.2 w/distortion                                                 | \ REPEAT
                                            | /  2X
Vibrato|
-------17-16-12-|-------17-16-12-|-------17-16-12-|-------17-16-12-|
----------------|----------------|----------------|----------------|
----------------|----------------|----------------|----------------|
----------------|----------------|----------------|----------------|
----------------|----------------|----------------|----------------|
----------------|----------------|----------------|----------------|

Note: Gtr.2 can also do "pick slades" after each measure.
Then Intro.
Then Verse.
Then Chorus.
Last Chorus:
Gtr.1 and Gtr.2 the same riffs.
And Gtr.3 (acoustic):
play chords |D#m |A# |C  | and then stop.
That's All.

Ещё песни с аккордами исполнителя/группы «Avril Lavigne»