He wasn't
Avril Lavigne
Avril LavigneHe wasn't Прислать видеоурок
Avril Lavigne He wasn't
Добавлено: — , Просмотров: 485 (+0)

 
Добавить в избранное

Under my Skin
He wasn't

Tuning: "Dropped D" (E B G D A D)
Intro/Verse w/distortion:
  D5                    C5 
E----------------|----------------|----------------|----------------|
B----------------|----------------|----------------|----------------|
G--7--7-7-7-7-7--|--7--7-7-7-7-7--|--5--5-5-5-5-5--|--5--5-5-5-5-5--| \ REPEAT
D--7--7-7-7-7-7--|--7--7-7-7-7-7--|--5--5-5-5-5-5--|--5--5-5-5-5-5--| /   4X
A--5--5-5-5-5-5--|--5--5-5-5-5-5--|--3--3-3-3-3-3--|--3--3-3-3-3-3--|
D----------------|----------------|----------------|----------------|
Then
  D5                    C5             A5 
E----------------|----------------|----------------|----------------|
B----------------|----------------|----------------|----------------|
G--7--7-7-7-7-7--|--7--7-7-7-7-7--|--5-------------|--2-------------|
D--7--7-7-7-7-7--|--7--7-7-7-7-7--|--5-------------|--2-------------|
A--5--5-5-5-5-5--|--5--5-5-5-5-5--|--3-------------|--0-------------|
D----------------|----------------|----------------|----------------|

Pre-Chorus:
  F5               E5               F5               E5 
E----------------|----------------|----------------|----------------|
B----------------|----------------|----------------|----------------|
G----------------|----------------|----------------|----------------|
D--3-------------|--2-------------|--3-------------|--2-------------|
A--3-------------|--2-------------|--3-------------|--2-------------|
D--3-------------|--2-------------|--3-------------|--2-------------|
Sit In The Bed Alone ......

Chorus:
  D5                    G5 
E----------------|----------------|----------------|----------------|
B----------------|----------------|----------------|----------------|
G----------------|----------------|----------------|----------------|
D--0-0-0-0-0-0-0-|--0-0-0-0-0-0-0-|--5-5-5-5-5-5-5-|--5-5-5-5-5-5-5-|
A--0-0-0-0-0-0-0-|--0-0-0-0-0-0-0-|--5-5-5-5-5-5-5-|--5-5-5-5-5-5-5-|
D--0-0-0-0-0-0-0-|--0-0-0-0-0-0-0-|--5-5-5-5-5-5-5-|--5-5-5-5-5-5-5-|

  D5                                Pick Slade
E----------------|----------------|----------K----E|----------------|
B----------------|----------------|-------C----D---|----------------|
G----------------|----------------|----I----A------|----------------|
D--0-------------|----------------|-P----L---------|----------------|
A--0-------------|----------------|---S------------|----------------|
D--0-------------|----------------|----------------|----------------|

Break:
  C5               E5               D5               G5 
E----------------|----------------|----------------|----------------|
B----------------|----------------|----------------|----------------|
G--5-------------|----------------|----------------|----------------|
D--5-------------|--2-------------|--0-------------|--5-------------|
A--3-------------|--2-------------|--0-------------|--5-------------|
D----------------|--2-------------|--0-------------|--5-------------|

Ещё песни с аккордами исполнителя/группы «Avril Lavigne»