Nobody's home
Avril Lavigne
Avril LavigneNobody's home Прислать видеоурок
Avril Lavigne Nobody's home
Добавлено: — , Просмотров: 535 (+1)

 
Добавить в избранное

Under my Skin
Nobody's home

Tune your guitar down to 1/2 step.

Intro:            Fm              D#             C# 
D#---------2---------------0-----------------------------------------|
A#-----222-----2------000------0----------3-------------3-------2h3--|
F#------------------------------------222---2-------222---2----------|
C#--4------------44-2--------------0------------0--------------------|
G#-------------------------------------------------------------------|
D#-------------------------------------------------------------------|

And then the chords (only in this tunning):
  Fm       D#       C#       G# 
--2--    --0--    --2--    --0--
--2--    --0--    --3--    --2--
--2--    --1--    --2--    --2--
--4--    --2--    --0--    --2--
--4--    --2--    -----    --0--
--2--    --0--    -----    -----

Fm          D# 
Verse:        I couldn't tell you
     C# 
What she felt that way
She felt it every day....

Fm              D# 
Chorus:        She want's stay at home
Nobody's home
C# 
It's where she lies
Broken inside....

Ещё песни с аккордами исполнителя/группы «Avril Lavigne»