Take me away
Avril Lavigne
Avril LavigneTake me away Прислать видеоурок
Avril Lavigne Take me away
Добавлено: — , Просмотров: 558 (+1)

 
Добавить в избранное

Under my Skin
Take me away

Tuning:        "Drop D" E B G D A D

Intro/Verse:
   E           D           A           C      A 
E----------------------------------------------------|
B----------------------------------------------------|
G--------0--0--------------------0--0-----0-------0--| \ REPEAT
D--------------------4--4-----2--------3------0------| /   4X
A-----2-----------0--------0-------------------------|
D--2-----------0-------------------------------------|
I cannot find a way to describe it
It's there inside; all I do is hide
Than (light distortion):
  E            D          A 
E----------------------------------------------------|
B----------------------------------------------------|
G-------------------------2--------2--------2--------| \ REPEAT
D-------------------------2--------2--------2--------| /   2X
A-------------------------0--0--0--0--0--0--0--0-----|
D--2--2--2--2--0--0--0--0----------------------------|
P.M......................    ....     ....     .
I wish that it would just go away
What would you do, you do, if you knew
   C 
E-----------------|
B-----------------|
G-----------------|
D-----------------|
A--3--3--3--3-----|
D-----------------|
P.M..........
What would you do

Chorus (heavy distortion):
   E       C       D 
E---------------------------------|
B---------------------------------|
G----------5--5-------------------|
D--2--2----5--5----0-0-0-0-0-0-0--|
A--2--2----3--3----0-0-0-0-0-0-0--|
D--2--2------------0-0-0-0-0-0-0--|
All the pain I thought I knew
All my thoughts lead back to you
   E       C       D           A 
E---------------------------------|
B---------------------------------|
G----------5--5----------------2--|
D--2--2----5--5----0-0-0-0-0-0-2--|
A--2--2----3--3----0-0-0-0-0-0-0--|
D--2--2------------0-0-0-0-0-0----|
Back to what was never said
Back and forth inside my head
   E       C       D 
E---------------------------------|
B---------------------------------|
G----------5--5-------------------|
D--2--2----5--5----0-0-0-0-0-0-0--|
A--2--2----3--3----0-0-0-0-0-0-0--|
D--2--2------------0-0-0-0-0-0-0--|
I can't handle this confusion
I'm unable; come and take me away

Verse 2:
   E           D           A           C      A 
E----------------------------------------------------|
B----------------------------------------------------|
G--------0--0--------------------0--0-----0-------0--| \ REPEAT
D--------------------4--4-----2--------3------0------| /   3X
A-----2-----------0--------0-------------------------|
D--2-----------0-------------------------------------|
I feel like I am all alone
All by myself I need to get around this
  E            D          A 
E----------------------------------------------------|
B----------------------------------------------------|
G-------------------------2--------2--------2--------| \ REPEAT
D-------------------------2--------2--------2--------| /   2X
A-------------------------0--0--0--0--0--0--0--0-----|
D--2--2--2--2--0--0--0--0----------------------------|
P.M......................    ....     ....     .
My words are cold, I don't want them to hurt you
If I show you, I don't think you'd understand
   C 
E-----------------|
B-----------------|
G-----------------|
D-----------------|
A--3--3--3--3-----|
D-----------------|
P.M..........
Cause no one understands

Chorus (heavy distortion):
   E       C       D 
E---------------------------------|
B---------------------------------|
G----------5--5-------------------|
D--2--2----5--5----0-0-0-0-0-0-0--|
A--2--2----3--3----0-0-0-0-0-0-0--|
D--2--2------------0-0-0-0-0-0-0--|
All the pain I thought I knew
All my thoughts lead back to you
   E       C       D           A 
E---------------------------------|
B---------------------------------|
G----------5--5----------------2--|
D--2--2----5--5----0-0-0-0-0-0-2--|
A--2--2----3--3----0-0-0-0-0-0-0--|
D--2--2------------0-0-0-0-0-0----|
Back to what was never said
Back and forth inside my head
   E       C       D 
E---------------------------------|
B---------------------------------|
G----------5--5-------------------|
D--2--2----5--5----0-0-0-0-0-0-0--|
A--2--2----3--3----0-0-0-0-0-0-0--|
D--2--2------------0-0-0-0-0-0-0--|
I can't handle this confusion
I'm unable; come and take me away

Break:
   C 
E---------------------------------|
B---------------------------------|
G--5-~~---------------|
D--5-~~---------------|
A--3-~~---------------|
D---------------------------------|
I'm going nowhere (on and on and)
   E 
E---------------------------------|
B---------------------------------|
G---------------------------------|
D--2-~~---------------|
A--2-~~---------------|
D--2-~~---------------|
I'm getting nowhere (on and on and on)
   C 
E---------------------------------|
B---------------------------------|
G--5-~~---------------|
D--5-~~---------------|
A--3-~~---------------|
D---------------------------------|
Take me away
   D 
E---------------------------------|
B---------------------------------|
G---------------------------------|
D--0-~~---------------|
A--0-~~---------------|
D--0-~~---------------|
I'm going nowhere (on and off and off and on)
(and off and on)

And Then Chorus Once Again

Lyrics:        I cannot find a way to describe it
It's there inside; all I do is hide
I wish that it would just go away
What would you do, you do, if you knew
What would you do
All the pain I thought I knew
All my thoughts lead back to you
Back to what was never said
Back and forth inside my head
I can't handle this confusion
I'm unable; come and take me away
I feel like I am all alone
All by myself I need to get around this
My words are cold, I don't want them to hurt you
If I show you, I don't think you'd understand
Cause no one understands
All the pain I thought I knew
All my thoughts lead back to you
Back to what was never said
Back and forth inside my head
I can't handle this confusion
I'm unable; come and take me away
I'm going nowhere (on and on and)
I'm getting nowhere (on and on and on)
Take me away
I'm going nowhere (on and off and off and on)
(and off and on)
All the pain I thought I knew
All my thoughts lead back to you
Back to what was never said
Back and forth inside my head
I can't handle this confusion
I'm unable; come and take me away
Take me away
Take me away
Take me away
Take me away

Ещё песни с аккордами исполнителя/группы «Avril Lavigne»