Who knows
Avril Lavigne
Avril LavigneWho knows Прислать видеоурок
Avril Lavigne Who knows
Добавлено: — , Просмотров: 307 (+0)

 
Добавить в избранное

Under my Skin
Who knows

Tuning:        "Standart" E B G D A E

For 3 Gtrs.
Gtr. 1 - acoustic
Gtr. 2 - electric clean
Gtr. 3 - electric w/distortion

Intro:
Gtr.2 (clean)
   E          C           G          D 
E---------------------------------------------2--|
B--------3p1--------1--0--------3p0--------3-----|
G---------------------------------------2--------|
D-----2----------2-----------0-------0-----------|
A-------------3----------------------------------|
E--0----------------------3----------------------|
   E          C           G          D 
E------------------------------------2-----------|
B--------3p1--------1--0--------3p0--3-----------|
G------------------------------------2-----------|
D-----2----------2-----------0-------0-----------|
A-------------3----------------------------------|
E--0----------------------3----------------------|

Verse Part1:
Gtr.3 w/distortion
   E5          C5         G5         D5 
E------------------------------------------------|
B------------------------------------------------|
G--------------5--5------------------7--7--------|
D--2--2--------5--5-------5--5-------7--7--------|
A--2--2--------3--3-------5--5-------5--5--------|
E--0--0-------------------3--3-------------------|
Gtr.2 w/distortion
E------------------------------------------------|
B------------------------------------------------|
G--------7--------3h4p3------7----------7/12-|
D------------------------------------------------|
A------------------------------------------------|
E------------------------------------------------|
Yeah, yeah
Yeah-eah, yeah
Yeah-eah, yeah

Verse Part2:
Gtr.1 plays chords
 |  E  |  C  |  G  |  D  |  
Why do look so familiar
I could swear that I have seen your face before
Gtr.2 (clean)
   E          C           G          D 
E---------------------------------------------2--|
B--------3p1--------1--0--------3p0--------3-----|
G---------------------------------------2--------|
D-----2----------2-----------0-------0-----------|
A-------------3----------------------------------|
E--0----------------------3----------------------|
I think I like that you seem sincere
I think I like to get to know you a little bit more

Chorus:
Gtr.2&Gtr.3 w/distortion
   A5           C5 
E----------------------------|
B----------------------------|
G--2---2-2-2-2--5---5-5-5-5--|
D--2---2-2-2-2--5---5-5-5-5--|
A--0---0-0-0-0--3---3-3-3-3--|
E----------------------------|
I think there's something more,
life's worth living for
   G5           C5 
E----------------------------|
B----------------------------|
G---------------5---5-5-5-5--|
D--5---5-5-5-5--5---5-5-5-5--|
A--5---5-5-5-5--3---3-3-3-5--|
E--3---3-3-3-3---------------|
Who knows what could happen.
Do what you do, just keep on laughing
One thing's true, there's always a brand new day
   A5           C5 
E----------------------------|
B----------------------------|
G--2---2-2-2-2--5------------|
D--2---2-2-2-2--5------------|
A--0---0-0-0-0--3------------|
E----------------------------|
I'm gonna live today like it's my last day

Verse 2 Part1:
Gtr.3 w/distortion
   E5          C5         G5         D5 
E------------------------------------------------|
B------------------------------------------------|
G--------------5--5------------------7--7--------|
D--2--2--------5--5-------5--5-------7--7--------|
A--2--2--------3--3-------5--5-------5--5--------|
E--0--0-------------------3--3-------------------|
Gtr.2 w/distortion
E------------------------------------------------|
B------------------------------------------------|
G--------7--------3h4p3------7----------7/12-|
D------------------------------------------------|
A------------------------------------------------|
E------------------------------------------------|
Yeah, yeah
Yeah-eah, yeah
Yeah-eah, yeah

Verse 2 Part2:
Gtr.1 plays chords
 |  E  |  C  |  G  |  D  |  
How do you always have an opinion
And how do you always find the best way to compromise
Gtr.2 w/distortion
E-------------------------------------------------|
B-------------------------------------------------|
G--------7--------3h4p3--------7--------7/12--|
D-------------5--5--------------------7--7--------|
A--2--2-------3--3---------5--5-------5--5--------|
E--0--0--------------------3--3-------------------|
P.M....       ....        ......      ....
We don't need to have a reason
We don't need anything
We're just wasting time

Chorus:
Gtr.2&Gtr.3 w/distortion
   A5           C5 
E----------------------------|
B----------------------------|
G--2---2-2-2-2--5---5-5-5-5--|
D--2---2-2-2-2--5---5-5-5-5--|
A--0---0-0-0-0--3---3-3-3-3--|
E----------------------------|
I think there's something more,
life's worth living for
   G5           C5 
E----------------------------|
B----------------------------|
G---------------5---5-5-5-5--|
D--5---5-5-5-5--5---5-5-5-5--|
A--5---5-5-5-5--3---3-3-3-5--|
E--3---3-3-3-3---------------|
Who knows what could happen.
Do what you do, just keep on laughing
One thing's true, there's always a brand new day
   A5           C5 
E----------------------------|
B----------------------------|
G--2---2-2-2-2--5------------|
D--2---2-2-2-2--5------------|
A--0---0-0-0-0--3------------|
E----------------------------|
I'm gonna live today like it's my last day

Break:
Gtr.2 Tremolo w/wah
E------------------------------------|
B------------------------------------|
G--777777779999999991212121212-------|
D------------------------------------|
A------------------------------------|
E------------------------------------|
Find yourself, cause I can't find you
Be yourself, who are you?
Find yourself, cause I can't find you
Be yourself, who are you?
Who knows what could happen.
Do what you do, just keep on laughing
One thing's true, there's always a brand new day
   G5           C5 
E----------------------------|
B----------------------------|
G---------------5---5-5-5-5--|
D--5---5-5-5-5--5---5-5-5-5--|
A--5---5-5-5-5--3---3-3-3-5--|
E--3---3-3-3-3---------------|
So you go and make it happen
Do your best just keep on laughing
It's all on you, there's always a brand new day

And Than Chorus

HAPPY END...........

Ещё песни с аккордами исполнителя/группы «Avril Lavigne»