She Likes it on Top
Axe Lillian
Axe LillianShe Likes it on Top Прислать видеоурок
Axe Lillian She Likes it on Top
Добавлено: — , Просмотров: 223 (+0)

  Добавить в избранное

"Love & War", "Out of the Darkness, Into the Light"
She Likes it on Top

INTRO/CHORUS:    ----------------------------------------------------------------
----------------------------------------------------------------
-----5-------5--------------------------------------------------
--------------------5-------5-----------------------------------
-3-3---3---3------------------------6---7---6-------2-3-----2-5-
----------------3-3---3---3-----5-5---5---5-----1-1-----3-3-----

VERSES:        -----------------------------------------------
-----------------------------------------------
-5-5--5-5--------------------------------------
-5-5--5-5--5-5--5-5--7-7--7-7------------------
-3-3--3-3--5-5--5-5--7-7--7-7------2-3-----2-5-
-----------3-3--3-3--5-5--5-5--1-1-----3-3-----

I'm not exactly sure how the bridge and interlude go.
You may have to listen to the album to get the timing right.