The Clown Is Dead
Axel Rudi Pell
Axel Rudi PellThe Clown Is Dead Прислать видеоурок
Axel Rudi Pell The Clown Is Dead
Добавлено: — , Просмотров: 384 (+0)

 
Добавить в избранное

The Clown Is Dead

INTRO:        |----16-18-19-18-16-18-19-|----14-16-18-19-18-16-14------15-16-18-16-15-16-18---
|-16----------------------|-14------------------------15------------------------
|-------------------------|----------------------------------------------------- } Repeat 5X
|---------------------(2X)|-----------------------------------------------------
|-------------------------|-----------------------------------------------------
|-------------------------|-----------------------------------------------------

(Last Time)
|----16-18-19-18-16-18-19-|----14-16-18-19-18-16-14------15-16-18-16-15-16-18-16
|-16----------------------|-14------------------------15------------------------
|-------------------------|----------------------------------------------------- (Last time)
|---------------------(2X)|-----------------------------------------------------
|-------------------------|-----------------------------------------------------
|-------------------------|-----------------------------------------------------

G#m            C#m 
The Death Of A Clown
F#m             G#m 
Reminds You All Lifetime,
E              D# 
A Lake Full Of Tears
               G#mF# 
Overflowed The World.
The Reaper Brought Pain,
So Sad Are The Children,
Their Time Of Mourning
Will Be Forever.
(End with   G#m  - F# )
C#m          G#m 
Where Did He Go,
C#m            F# 
No Laughter In Heaven,
C#m          E 
Where Did He Go,
             D# 
Where Did He Stay?

G#m          C#m 
CHORUS:        The Clown Is Dead,
F#              E 
The Laughter Is Gone,
G#m          C#m 
The Clown Is Dead,
F#            E 
Life's On The Run.

RIFF 1:        |-11-----11-------11----12-11-9-12-11-9-12-11-9-------9-------9-----------
|---12------12-------12-------------------------11------11------11--------
|-----13-------13----------------------------------11------11-------------
|-------------------------------------------------------------------------
|-------------------------------------------------------------------------
|-------------------------------------------------------------------------

|-7------7-------7--------------------------------------------------------
|---9------9-------9------------------------------------------------------
|-----9------9------------------------------------------------------------
|-------------------------------------------------------------------------
|-------------------------------------------------------------------------
|-------------------------------------------------------------------------

SOLO 1: (Clean Sound)
|------------------------------------------------------------------------------
|------------------------------------------------------------------------------
|----------8--9--8-6-4-6--4-6-8-8-6-4-3b4r3-----------------4-3-4--------------
|--6--8-9-----------------------------------4-4-6-4-----4-6-------4---4-6------
|---------------------------------------------------6-6-------------6----------
|------------------------------------------------------------------------------
Behind His Mask,
He Was Only Human,
A Person Who Feels
Like You And Me.
Where Did He Go,
No Laughter In Heaven,
Where Did He Go,
Where Did He Stay?

Repeat CHORUS (End with E )

PART 3: (listen the song for getting rhythim)
A5            C#5 
Can't You See The Light,
    G#5                 F#5    F#5/G#5/A5 
The Star That Shined So Bright,
A5       C#5 
Was It A Lucky Sign,
     G#5                       F#5       F#5/G#5/A5 
From Someone Who Says "I'm Allright"...
A5C#5G#5F#5F#5/G#5/A5 
B5D5A5G5F#5 

Repeat RIFF 1

SOLO 2:        |-----------------------------------------------------------------------------
|-----------------------9-11-12-14-16-14-12-11-9---14/16-17-16-14-12-14-------
|-----------9-8-6---8-6-------------------------------------------------------
|--4/6--8-9-------9-----------------------------------------------------------
|-----------------------------------------------------------------------------
|-----------------------------------------------------------------------------

|-----------------------------------------------------------------------------
|-14/16-14-12-11---------------------------------------------------------12---
|----------------13-11-----11-13-11----------------------------13--13-15------
|-----------------------13----------13-11----------------11-13----------------
|-----------------------------------------14-13-9-11--13----------------------
|-----------------------------------------------------------------------------

|------------------------------------------------------------------------------
|-14-12-------------------------------16-17-16-14-12-14-14--12-14-16-17-16-17--
|-------15-13-11-----11-13-13^----13-------------------------------------------
|-----------------13-----------13----------------------------------------------
|------------------------------------------------------------------------------
|------------------------------------------------------------------------------

|----------16----16-16---------------------------------------------------------
|-19-17-19----19---------------------------------------------------------------
|------------------------------------------------------------------------------
|------------------------------------------------------------------------------
|------------------------------------------------------------------------------
|------------------------------------------------------------------------------

Repeat PART 2
Repeat CHORUS
Repeat CHORUS (end with D# )

RIFF 2:        |------------------------------------------------------------------------------
|------12-----11--------9-11-12-11-9-------------------------------------------
|--8-8----8-8----8-8-11--------------------------------------------------------
|------------------------------------------------------------------------------
|------------------------------------------------------------------------------
|------------------------------------------------------------------------------ } repeat 8x

Repeat CHORUS
Repeat CHORUS (play D#  and finalize with G#m )
Repeat INTRO

Innocence, Laughter, Madness,
Tears, Death, Heaven, Pain...

Ещё песни с аккордами исполнителя/группы «Axel Rudi Pell»