Vuela
Azrael
Azrael Vuela
Добавлено: — , Просмотров: 229 (+0)

 
Добавить в избранное

Vuela (Mafia, 2000)

RIFF INTRO (00:24):
e|---------------------------------------------------------------------------|
B|---------------------------------------------------------------------------|
G|---------------7-----7-----------------------------------------------------|
D|---------------7--x--7-----------------------------------------------------|
A|---1p0---1p0---5--x--5-----------------------------------------------------|
E|---------------------------------------------------------------------------|
                 D     D 
RIFF VERSO (00:56):
e|---------------------------------------------------------------------------|
B|---------------------------------------------------------------------------|
G|---------------------------------------------------------------------------|
D|---------------------------------------------------------------------------|
A|---5-5-5-5-5---1p0---1p0---------------------------------------------------|
E|---------------------------------------------------------------------------|
     · · · · ·   ·     ·
PUENTE (01:12):
                                      x2
e|------------|-------------------------|------------------------------------|
B|------------|-------------------------|------------------------------------|
G|---3----5---|---------------7-----7---|---3----5------------6--------------|
D|---3----5---|---------------7-----7---|---3----5-----5-5-5--6--------------|
A|---1----3---|---1p0---1p0---5--x--5---|---1----3-----3-3-3--4--------------|
E|------------|-------------------------|------------------------------------|
     Bb   C                  D     D       Bb   C            C# 

Lo mismo de siempre... nada por ganar.
ESTRIBILLO (01:25):
e|---------------------------------------------------|-----------------------|
B|---------------------------------------------------|-----------------------|
G|---7-----5-----5-----3-----5-----5-----3-----5-----|---5-/-7---5-----------|
D|---7--x--5--x--5--x--3--x--5--x--5-----3-----5-----|---------------7--5----|
A|---5--x--3--x--3--x--1--x--3--x--3-----1-----3-----|-----------------------|
E|---------------------------------------------------|-----------------------|
     D     C     C     Bb    C     C     Bb    C 
Sabes que ...
RIFF INTRO (01:44)
RIFF VERSO (01:52)
PUENTE (02:09)
ESTRIBILLO (02:22)
TRANSICIУN (02:41):
                                                    x2
e|-----------------------------------------------------|---------------------|
B|-----------------------------------------------------|---------------------|
G|-----------------------------------------------------|---------------------|
D|-----------------------------------------------------|---------------------|
A|---5-·····-3-·····-1-·····-1-·····-3-·····-5-·····---|---------------------|
E|-----------------------------------------------------|---1-·····-3-·····---|
     ·       ·       ·       ·       ·       ·             ·       ·
Deja que tu alma se vaya a otro lugar...
No tires el tiempo buscando explicaciyn...
SOLO (03:20)
ESTRIBILLO (03:42)