The Quiet Room
Babes In Toyland
Babes In ToylandThe Quiet Room Прислать видеоурок
Babes In Toyland The Quiet Room
Добавлено: — , Просмотров: 285 (+0)

  Добавить в избранное

"Fontanelle"
The Quiet Room

QUIET  ROOM originally written by SugarBabyDoll (Kat Bjelland, Jennifer
Finch, Courtney Love). It's featured on the "Babes in Toyland" To Mother
mini-album and Fontanelle.

MUST BE IN DROPPED D TUNING
THE OPENING RIFF...
E-----0---0-----0---0-----0---0------0----------E
B-------0----------0----------0-----------0-------B
G--------------------------------------------------G
D----0------0-----------2----------2--------------D
A-------------4-------4-----------2-----2----4----A
D----------------------------------------------------D

E-----0---0---------0----0--------0--------------0-------------E
B-------0--------------0--------------0-----------0-------------B
G-----------------------------------------------------------------G } PLAYED 2 TIMES
D---0--------0---------------------------------------------------D
A---------------0------------0--2---------1--2--------2--4----A
D-----------------------------------------------------------------D

E--------1---1---------3---3-------4---4----4-\-3---3--3-------E
B----------3--------------5-----------6-------6-\-5---5--5-------B
G--------------------------------------------------------------------G } PLAY 2 TIMES
D-------------------0----------0------------------------------------D
A--------------------------------------------------------------------A
D----0----------0-----------------0--------------------------------D

E-------1---1----------1---1---------1---1-------4-----3------1---------E
B---------3---------------3-------------3-------------3------3-----3------B
G----3--------------3-------------3----------------------------------------G
D----0--------------0-------------0----------------------------------------D
A----------------------------------------------------------------------------A
D---------------0-------------0---------------0-----------------------------D

...AND END THAT PART WITH THIS...
E--------0---0--------0-----E
B----------2-----------2-----B
G----------------------2-----G
D----------------2----2------D
A----0----------------0------A
D------------------------------D

E------------------------------------------------------------------E
B---------0---1---3---1---0-------0---1---0---3---1---0------B
G----2--------------------------2---------------------------------G } PLAY 2 TIMES
D------------------------------------------------------------------D
A------------------------------------------------------------------A
D------------------------------------------------------------------D
THEN JUMP TO THIS...
E------------------------------------------------------------E
B----0---1---3------3---1---3------3---3------3---3----B
G-----------------------------------------------------------G } PLAY 3 TIMES
D-----------------------------------------------------------D
A-----------------------------------------------------------A
D-----------------------------------------------------------D
...AND THE ENDING....
E---------------------3----2--------------------2-------E
B---2-------------------3--------3-----3-------3-------B
G------2---------2------------------2-----------2------G
D---------0--------------------------------------0------D
A--------------------------------------------------------A
D--------------------------------------------------------D

Ещё песни с аккордами исполнителя/группы «Babes In Toyland»