Don't tell me what to do
Baby Animals
Baby Animals Don't tell me what to do
Добавлено: — , Просмотров: 261 (+1)

  Добавить в избранное

Don't tell me what to do

This is very incomplete. I only have one verse and one chorus on tape.
I don't have the lyrics. I don't have the solo. Please, anyone who can
add to this, feel free.

Key:
~ = Whammy vibrato
/ = Slide

Verse:  (clean w/chorus)
E ---------------------------------------------------4--4/6--6---2-
B -----6------8~---------9---------11~-\------6-----4---4/6--6---2-
G -----6-----6-------------8------------------6----6----6/8--8---3-
D -----6----8-------9/11-----11/13------------6---4----------------
A --4------6--------------------------------4----------------------
E -----------------------------------------------------------------

E --4-2--------------------4~--4/6--6---2-
B ------------------6-----4----4/6--6---2-
G --------4-3-------6----6-----6/8--8---3-
D ------4-----4/6---6---4-----------------
A ----------------------------------------
E ----------------------------------------

Chorus: (w/distortion)
E ------------------------------------------------------------------------
B -------------------------4------/6--6--8-------------------------4------
G ----------6----------2-------2--/4--4--6-------------------------4------
D -----6--------6---4-------------/6--6--8-------------------------6------
A -4-------------------------------------6--------------------------------
E -----------------------------------------------------------4------------
       Your pathway forward is an     e  -  xit doorway, but don't tell me
E --------0~-----------------------------------------------------
B --------0~-----------------------------------------------------
G --------1~---6----6666666---4-4-------------6----6------9----8-
D --------2~---6----6666666---4-4----4--------6----6------9----9-
A --------2~---4----4444444---2-2----4--------4----4------7----6-
E --------0~-------------------------2---------------------------
  what to do.. well..oh no...      I am    forever trying to defend...
E --------------------------------------------------------------------------
B --------------------------------------------------------------------------
G -4-4----------6---6---9---9---8-8---4-4---------6--6----4/6----4/6\4------
D -4-4----4-----6---6---9---9---9-9---4-4----4----6--6----2/4----4/6\4------
A -2-2----4-----4---4---7---7---6-6---2-2----4----4--4----------------------
E --------2----------------------------------2------------------------------
        I lost...                     I blah...
E ---------------------4--------
B ------------0--------4-----2--
G ------------1--------5-----2--
D -----4------2--------6-----2-- (That's it!)
A -----4------2--------6-----0--
E -----2------0--------4--------
  Oh I can't remember such a...