When Can I See You
Babyface
BabyfaceWhen Can I See You Прислать видеоурок
Babyface When Can I See You
Добавлено: — , Просмотров: 321 (+0)

  Добавить в избранное

When Can I See You

I was looking through the files, and I found this song, so I
printed it out, seeing if it could help me get the finishing touches on
it. When I got back home, I found that the file was lacking many things.
I spent hours listening to the song changing every little detail until I got it
right. This is a correction to the one already there.

Intro:        -------------------------------0---------------------------------0-
-0--------------------3-----------3-----3----0-------------------2-
----2-----------0--------------------2----------2----------0-----4-
-------0-----------0-----4--4-----------4----------0----------0--2-
----------------------2--------2-----------------------------------
-3--------3--0-------------------------------3--------3--0---------

Figure 1:    --------------------------------------0-----------
-0---------------------------3------------3-------
-----2---------------0------------------------2-2-
---------0---------------0--------4---------------
-----------------------------2--------2-----------
-3-----------3---0--------------------------------

Figure 2:    -------------------------------------0----------
-0---------------------------3----------3-----3-
-----2---------------0---------------------2----
---------0---------------0-------4------------4-
-----------------------------2-------2----------
-3-----------3---0------------------------------

Figure 3:    --------------------------------------0----------
-0---------------------------3-----------------3-
-----2---------------0---------------------------
---------0---------------0--------4-------2h4----
-----------------------------2--------2----------
-3-----------3---0-------------------------------

Figure 4:    -3--0---3---2---2---3------3--0---3---0--------------0---0-
------0-------4--------0--------0-------1----------------1-
------------------------------------------0----------0---0-
-2----------1-------2------------------------0h2---------0-
---------------------------4----------0------0----0--------
-----------------------------------------------------------

Figure 5:    -0-----0-------------0------------
----0------3---1--------1-------1-
--------------------------------0-
------------------2--------0h2----
-3---------2---0-----------0------
----------------------------------

Figure 6:                                       Final chord:
-------------------------------0------0--0-       ---2---
-1---0------0-----0----------0------1----1-       ---0---
--------------0-----0------0------0------0-       ---2---
-------0----------0----------------------0-       ---0---
-----2------------------4---------0--------       ---2---
-2----------0------------------------------       ---3---

Lyrics:

Verse 1:    When can my heart beat again?
When does the pain ever end?
And when do the tears stop from running over?
When does "you'll get over it" begin?
I hear what your saying but I swear that it's not making sense.
So when can I see you.

Chorus:        When can I see you again?
When can my heart beat again?
When can I see you again, baby?
And when can I breathe once again?
And when can I see you (again).

Verse 2:    When does my someday begin, when I'll find someone again?
And what if I still am not truly over, what am I s'posed to do
then, baby.
Do you see what I'm saying, even if it is not making sense.
So when can I see you.

Chorus

I hope that this helps out. It's probably not perfect yet, but I
know it's close.

Ещё песни с аккордами исполнителя/группы «Babyface»