When Can I See You Again
Babyface
BabyfaceWhen Can I See You Again Прислать видеоурок
Babyface When Can I See You Again
Добавлено: — , Просмотров: 356 (+0)

  Добавить в избранное

When Can I See You Again

This is from my brother. I hope you appreciate this. He was going to write
down the order, but he didn't have time. If anyone has the order in which
these are played, it would be very helpful.

Tune half-step down

Intro/verse:    ----------------------------------------0---------------------------
---0-------------------0--------3-------3---3-------------3---------
-------0-------------------0------------2------2----------0---------
-----------0--------------------0---0--------------0h2---------0----
--------------------------------------------------------------------
---3-----------3---0------------------------------------------------

Rhythm Figure 1:-----------------------------------------------------------------------------
---8---------------7-----------8-----------8----------5----------------------
-------9---------------8-----------9-----------9---------5----------------5--
-----------9---------------9-----------9-----------9--------5------5------5--
---7-----------7---6-----------7------------------------------5h7----7----5--
-------------------------------------------9----------5----------------5--5--

Rhythm Figure 2:---------0------------0-----------0----------------0--------
---3-----3------3-----3---1-------1---1------------1--------
------0--0---------0--0-----------0-------0--------0--------
---------------------------------------------0h2--------2---
---3--------3---2---------0---0-----------------------------
------------------------------------------------------------

Rhythm Figure 3:----------------------------------------------------0-------------------------
---3---------------------------------------------0-------------------3--------
-------0---------0----------0--------0--------0-----------------0----0--------
----------2---------0----------------------------------------2-------0--------
---3---------2----------3-------2--------0----------------3----------2--------
------------------------------------------------------------------------------

End Chord:    -----------------------2----
-------------------0--------
---------------2------------
-----------0----------------
-------2--------------------
---3------------------------

I don't have the words to the song or anything, but I hope this helps.

Ещё песни с аккордами исполнителя/группы «Babyface»