Minuet
Bach Johann Sebastian
Bach Johann SebastianMinuet Прислать видеоурок
Bach Johann Sebastian Minuet
Добавлено: — , Просмотров: 404 (+0)

  Добавить в избранное

Minuet

3/4 time, andantino (moderate to fast speed)
Standard Tuning, strings shown below are high e to low E in that order.
Play Part I twice, then Part II twice.
(Part I)
  (Quarter notes)
  |     |     |      |     |     |      |     |     |      |     |     |
|------------------|------------------|-0-----------0--2-|-3----------------|
|-3-----------0--1-|-3----------------|-------1--3-------|------------------|
|-------0--2-------|-------0-----0----|------------------|-------0-----0----|
|------------------|------------------|------------------|------------------|
|-------------0----|-2----------------|-3----------------|-2----------------|
|-3----------------|------------------|------------------|------------------|

|------------------|------------------|------------------|------------------|
|-1-----3--1--0----|-0-----1--0-------|-------------0----|------------------|
|----------------2-|-------------2--0-|-------0--2-----0-|-4p2--------------|
|------------------|------------------|-4----------------|-0-----0----------|
|-3----------------|------------------|-5-----2----------|----------3--2--0-|
|------------------|-3----------------|-------------3----|------------------|

|------------------|------------------|-0-----------0--2-|-3----------------|
|-3-----------0--1-|-3----------------|-------1--3-------|------------------|
|-------0--2-------|-------0-----0----|------------------|-------0-----0----|
|------------------|------------------|------------------|------------------|
|-2-----------0----|-------2----------|-3----------------|-2-----3--2--0----|
|------------------|-3-----------3----|------------------|----------------3-|

|------------------|------------------|------------------|------------------|
|-1-----3--1--0----|-0-----1--0-------|-------0----------|-0----------------|
|----------------2-|-------------2--0-|-2--------2--0----|------------------|.
|------------------|------------------|-------0--------4-|------------------|.
|-0----------------|-------------2----|-3-----------5----|------------------|
|-------------2----|-3----------------|------------------|-3-----------3----|
(Part II)
  |     |     |      |     |     |      |     |     |      |     |     |
|-7-----3--5--7--3-|-5-----------2----|-3-----0--2--3----|------------------|
|------------------|-------3--5-----3-|----------------3-|-2-----0h2--------|
|-0----------------|------------------|-------0----------|-2-----------2----|
|------------------|-4----------------|-2-----------2----|------------------|
|------------------|------------------|------------------|------------------|
|------------------|------------------|------------------|------------------|

|-------------0--2-|-3-----2-----0----|-2----------------|------------------|
|----0--2--3-------|------------------|-------------2----|-3----------------|
|-2----------------|------------------|-------2----------|------------------|
|------------------|-------0----------|-0----------------|-0-----0----------|
|-0----------------|-2-----------4----|-------------0----|-------------3----|
|------------------|------------------|-------2----------|------------------|

|------------------|-0----------------|------------------|------------------|
|-3----------------|------------------|-3-----1-----0----|------------------|
|-------0-----0----|-------0-----0----|------------------|-2--0-----0--2----|
|-------0--4-------|-------2--4-------|------------------|-------4----------|
|-2-----------2----|-3-----------3----|-2-----0----------|-5----------------|
|------------------|------------------|-------------3----|------------------|

|------------------|------------------|------------------|------------------|
|----------------0-|-1-----0----------|-0--3-------------|------------------|
|----------0h2-----|-------0-----2----|-0-----0----------|-0----------------|.
|-0h2---4----------|-2-----------4----|-------------4----|-------0----------|.
|-5----------------|------------------|-------2-----5----|------------------|
|------------------|------------------|------------------|-3-----------3----|

Ещё песни с аккордами исполнителя/группы «Bach Johann Sebastian»