Scherzo H-minor (Cкepцo Cи-минop)
Bach Johann Sebastian
Bach Johann SebastianScherzo H-minor (Cкepцo Cи-минop) Прислать видеоурок
Bach Johann Sebastian Scherzo H-minor (Cкepцo Cи-минop)
Добавлено: — , Просмотров: 815 (+0)

  Добавить в избранное

Scherzo H-minor (Cкepцo Cи-минop)

E||---7--10p7----7---------------|--------------------------------|
B||-----------7----7----7--------|--------------------------------|
G||*-----------------7----7------|------7---6---6-----6-9-6-7-----|
D||*------------------------9~---|----9---9---9---9-8----------9--|
A||------------------------------|--9-----------------------------|
E||------------------------------|--------------------------------|
                                                  (trill)
--7--10p7----7---------------|----------------7-----------|
----------7----7----7--------|----------------------------|
-----------------7----7------|--7-6-7--7-6-7-----6--7--6--|
------------------------9~---|----------------------------|
-----------------------------|----------------------------|
-----------------------------|----------------------------|
                            (trill)
--------------------------------------|
----------------------15--------------|
--11-10-11--11-10-11------10--11--10--|
--------------------------------------|
--------------------------------------|
--------------------------------------|

-----------------------7-------------|-------------7-------9-------10-----|
----7-10-7-9-7-9-7-6-9---9-10-9-10-9-|--7-10-7-6-7---7-6-7---7-6-7----7-6-|
--6----------------------------------|------------------------------------|
-------------------------------------|------------------------------------|
-------------------------------------|------------------------------------|
-------------------------------------|------------------------------------|

----10-9-7-9--------------------------||---2--5-2----2---------------|
--7----------10-9-7-10--9h10p9--------||----------2----2----2--------|
-------------------------------11\---*||*----------------2----2------|
-------------------------------------*||*-----------------------4~---|
--------------------------------------||-----------------------------|
--------------------------------------||-----------------------------|

------------------------------|--3--7-3----3---------------|
---------5--4h5/10--8p7-8-----|---------5----5----5--------|
-/5p-4h5-------------------9--|----------------6----6------|
------------------------------|-----------------------7\---|
------------------------------|----------------------------|
------------------------------|----------------------------|

----------------------------------|-----------------------------7-----|
------7---------------8---7---7---|----7-------8-------10-------------|
----7---7-9-7-9-7-6-9---9---9---9-|--7---7-6-7---7-6-7----7-6-7---7-6-|
--7-------------------------------|-----------------------------------|
----------------------------------|-----------------------------------|
----------------------------------|-----------------------------------|
                                                           (trill)
---------------------------------------|--------------10-----------|
----12-10-8-10-------------------------|--7--7--7--7------7--8--7--|
--7------------11-9-7-11--9h11p9-------|---------------------------|
---------------------------------12----|---------------------------|
---------------------------------------|---------------------------|
---------------------------------------|---------------------------|
                  (trill)
--------------9-----------|--------------------------------------|
--5--5--5--5-----5--7--5--|--12----13p12p10\8----12p10p8\7-------|
--------------------------|--------------------------------9-----|
--------------------------|--------------------------------------|
--------------------------|--------------------------------------|
--------------------------|--------------------------------------|
                                Втopoй paз - зaмeдляeтcя
------------------------------|------------------------------|
--8p7-------------------------|-----------------------7------|
------9\7\5p4-5p4-3-----------|--4--3-4-9--7-6-4--4-7----4-7-|
---------------------4--5--4--|------------------------------|
------------------------------|------------------------------|
------------------------------|------------------------------|

--7----7-------------------||
-----7---------------------||
---------9-7-6-7-4--------*||
--------------------------*||
---------------------------||
---------------------------||

Ещё песни с аккордами исполнителя/группы «Bach Johann Sebastian»